PrimaNota.ru - самый крупный в мире бесплатный архив песенных текстов, аккордов, табулатур и нот


Laura Marling - Easy - таба, видео

Регистрация Запомнить меня
Войти через:  Facebook Google Twitter Vk Yandex Mail.ru

Laura Marling - Easy - таба, видео

Печатать
Просмотров: 121
Уроки эстрадного вокала в Санкт-Петербурге
Авторы: Laura Marling

Capo on the Second fret - DADF#AD


Hello, this is my first tab,
I decided to write just the chord patterns,I hope that this will help you, different 
finger picking styles
sound good with it.
Any advice or correction is appreciated :)

Intro part 1

D ---------------------------------------|
A --12----9----11----12----11----9----7/9|
F --12----8----10----12----10----8----7/9|
D ---------------------------------------|
A ---------------------------------------|
D ---------------------------------------|

Intro part 2

(live she played 2/4 and not 3/5 )
D ---------------------------------------|
A ---------------------------------------|
F ---------------------------------------|
D ---------------------------------------|
A --3/5----0----2p0----------------------|
D ---------------------2-0---------------|
Verse
"You fell asleep listening to me linger on
about how it used to be in the backseat, when we were young"

D ---------------------------------------|
A ---------------------------------------|
F ---------------------------------------|
D ---------------------------------------|
A --9----10----5----7----4----2----0-----|
D ---------------------------------------|


Where you go to lose your mind
Well I went too far this time
D ---------------------------------------|
A ---------------------------------------|
F ---------------------------------------|
D ---------------------------------------|
A ---------------------------------------|
d ---9----9/2----9/2----9/2--------------|

Chorus

"when we were young, when we were young
D ------------------------------------5--|
A ------------------------------------5--|
F ------------------------------------5--|
D ------------------------------------5--|
A --4----2----5--4-----4----2----0----5--|
D ------------------------------------5--|

we belonged to someone and that was easy + (intro part 2)
D --4------------------------------------|
A --4------------------------------------|
F --4------------------------------------|
D --4------------------------------------|
A --4------------------------------------|
d --4------------------------------------|

Well you cant be lost if you're not on your own
Well you can't be found if you're not all alone..
D --4----5-------------------------------|
A --4----5-------------------------------|
F --4----5-------------------------------|
D --4----5-------------------------------|
A --4----5----2/4----2/4----2/4----------|
d --4----5-------------------------------|
Добавлено: 06.11.2015
Другие материалы по этой песне:
  • Аккорды и текст

Страница создана 06.11.2015
http://primanota.ru/laura-marling/easy-chords.htm
Привет, Гость.
Предлагаем пройти революционный курс по гитаре.
Подарок от PrimaNota.Ru, забирай!