PrimaNota.ru - самый крупный в мире бесплатный архив песенных текстов, аккордов, табулатур и нот


Laura Marling - Daisy - таба, видео

Регистрация Запомнить меня
Войти через:  Facebook Google Twitter Vk Yandex Mail.ru

Laura Marling - Daisy - таба, видео

Печатать
Просмотров: 148
Уроки эстрадного вокала в Санкт-Петербурге
Авторы: Laura Marling

Hi! This is my first tab ever so please forgive me, it's not entirely accurate 
Wrote it down from JustMoray on youtube who picked it up so nicely, many thanks to him! :-)



Laura Marling - Daisy 

Open D (DADF#AD)


Intro:
d------------------------------------------------------------------------| 
a------------------------------------------------------------------------| 
F#---------------------------------------1-----3----5----7---5---4-------| 
D---4---2---0----------------------------2-----4----5----7---5---5-------| 
A---------------4---2---0-------0--------0-----0----0----0---0---0-------| 
D---------------------------4-------2----2-----4----5----7---5---5----12-| 


Verse (2x):
d----------------------------------------------0----0----0----0----0-----0------| 
a-------------------------------------------------------------------------------| 
F#-------------------------------1-----3----5----7----8----7----5-----4---------| 
D---4--2--0----------------------2-----4----5----7----9----7----5-----5---------| 
A-------------4--2--0-----0------0-----0----0----0----0----0----0-----0---------| 
D----------------------4-----2---2-----4----5----7----9----7----5-----5-----12--| 

Daisy lives by the docks
Down at the white rock
Running an open home
Daisy lives by the sea
I only see Daisy 
When she wants to see me


Chorus:
d------------------0----0-----------------| 
a-----------------------------------------| 
F#---12----10----8----7----5----4---------| 
D----12----11----9----7----5----5---------| 
A----0-----0-----0----0----0----0---------| 
D----12----11----9----7----5----5---------| 

Daisy's alright
She's up all night
Down at the docks 
Running an open home



d------------------0---------0-------------------0---------------0----| 
a---------------------------------------------------------------------| 
F#-----8--------------7------------------8-------------------7--------| 
D------9--------------7------------------9-------------------7--------| 
A------0--------------0------------------0-------------------0--------| 
D------9--------------7------------------9-------------------7--------| 

I think that you look at her wrong, I think that you look at us all wrong


d------------------0----0----------------------------| 
a----------------------------------------------------| 
F#---8----7-------------8---7----5----4--------------| 
D----9----7-------------9---7----5----5--------------| 
A----0----0-------------0---0----0----0--------------| 
D----9----7-------------9---7----5----5------12------| 

A woman alone is not a woman undone


Play intro

Verse (2x)
d----------------------------------------------0----0----0----0----0-----0------| 
a-------------------------------------------------------------------------------| 
F#-------------------------------1-----3----5----7----8----7----5-----4---------| 
D---4--2--0----------------------2-----4----5----7----9----7----5-----5---------| 
A-------------4--2--0-----0------0-----0----0----0----0----0----0-----0---------| 
D----------------------4-----2---2-----4----5----7----9----7----5-----5-----12--| 

Daisy met a man from Sicily
Sailed in one day and told her 
Who she was going to be 
O did he look at her strange
For no one and nobody
Is Daisy going to change

Chorus
Daisy's alright 
She's up all night Down at the docks 
Running an open home
I think that you look at her wrong
I think that you look at us all wrong
Woman alone is not a woman undone


Bridge (2x)
d----------------9--7---------------7--0-------------------12------| 
a----9--------9--------9---7-----7--------5---4---5---7----12------| 
F#---8-----8---------------7-----7--------5---3---5---7----12------| 
D-------0---------------------0------------------------------------| 
A------------------------------------------------------------------| 
D------------------------------------------------------------------| 


Verse
Daisy's got a baby now
She called her Angelina 
So she'd stand out of the crowd
Daisy doesn't care from where she seeds
As far as she's concerned 
She is immaculately conceived

Chorus
Daisy's alright 
She's up all night
Down at the docks 
Running an open home
I think that you look at her wrong
I think that you look at us all wrong
Woman alone is not a woman undone
Добавлено: 05.03.2016
Другие материалы по этой песне:
  • Аккорды и текст

Страница создана 05.03.2016
http://primanota.ru/laura-marling/daisy-chords.htm
Привет, Гость.
Предлагаем пройти революционный курс по гитаре.
Подарок от PrimaNota.Ru, забирай!