PrimaNota.ru - самый крупный в мире бесплатный архив песенных текстов, аккордов, табулатур и нот


Laura Biagi - Aria - таба, видео

Регистрация Запомнить меня
Войти через:  Facebook Google Twitter Vk Yandex Mail.ru

Laura Biagi - Aria - таба, видео

Печатать
Просмотров: 115
Уроки эстрадного вокала в Санкт-Петербурге
Tabbed by: Solced
Email: Solced@gmx.net

Tuning: Standart Tuning

E A G D B E


Laura Biagi - Aria

Am // Em // G // Dm

       Am                      Em

e|----0--0-0---0---0------0--0-0----0---0-------------------|
B|----1--1-1---1---1------0--0-0----0---0-------------------|
G|----2--2-2---2---2------0--0-0----0---0-------------------|
D|-----------2----------------------------------------------|
A|-0-------------0----------------2-------------------------|
E|----------------------0-------------0---------------------|

          G                              Dm

e|------2--2-2----2----2---------1--1-1----1----1-----------|
B|------2--2-2----2----2---------3--3-3----3----3-----------|
G|------0--0-0----0----0---------2--2-2----2----2-----------|
D|---------------------------------------0------------------|
A|-------------2--------------0--------------0--------------|
E|--3---------------3---------------------------------------|


is played again and again over the whole song

Official Website:      http://www.laurabiagi.it/
Добавлено: 19.04.2012
Другие материалы по этой песне:
  • Аккорды и текст

Страница создана 19.04.2012
http://primanota.ru/laura-biagi/aria-chords.htm
Привет, Гость.
Предлагаем пройти революционный курс по гитаре.
Подарок от PrimaNota.Ru, забирай!