PrimaNota.ru - самый крупный в мире бесплатный архив песенных текстов, аккордов, табулатур и нот


Laufer - Umorni Kompas - таба, видео

Регистрация Запомнить меня
Войти через:  Facebook Google Twitter Vk Yandex Mail.ru

Laufer - Umorni Kompas - таба, видео

Печатать
Просмотров: 104
-------------------------------------------------------------------------------
                            UMORNI KOMPAS - Laufer
-------------------------------------------------------------------------------
Tabbed by: brian_s
E-mail:bsremec@unseen.is

Tuning:EADGBe

1st verse:
W/wah wah
      0:08          0:21          0:27          0:33          0:37
e|-----------------5+--------------------------------------------------|
B|-------------------5+-------------0----------------------------12+---|
G|---------------------5+------------------------------------12+-------|
D|--------------------------------5------------------------------------|
A|---/10-7+--------------------------------------7---------------------|
E|---------------------------------------------------------------------|

      0:42           0:46          0:55          1:00          1:05
e|--------------------12+--------12----------------x-----------7+------|
B|-----12---------12+---------------12----------15---------------7+----|
G|---------------------------------------------------------------------|
D|---------------------------------------------------------------------|
A|---------------------------------------------------------------------|
E|---------------------------------------------------------------------|

Pre chorus:
W/wah wah
          U mojoj glavi spava         umorni kompas...
e|------------------------------------------------------|
B|------------------------------------------------------|
G|------------------------------------------------------|
D|------------------------------------------------------|
A|------------------------------------------------------|
E|----3-------------------------2-----------------------|

2nd verse:
W/wah wah
e|------------------------------------|
B|------------------------------------|
G|------------------------------------|    10 x
D|------------4-----5-----4-----4-5---|
A|--------------5-----5-----5---------|
E|---0-0-5-7--------------------------|

Pre chorus: 
W/wah wah
          U mojoj glavi spava         umorni kompas...
e|-----------------------------------------------------|
B|-----------------------------------------------------|
G|-----------------------------------------------------|
D|-----------------------------------------------------|
A|-----------------------------------------------------|
E|----3-------------------------2----------------------|


Chorus:
         Pijesak mojih satova...         ...zašto mislim
e|-------------------------------|-------------------------0---|
B|-------------------------------|-------------------------0---|
G|---4---------------------------|----4--------------------0---|
D|---4------------5--------2-----|----4----------5---------2---|
A|---2------------5--------2-----|----2----------5---------2---|
E|----------------3--------0-----|---------------3---------0---|

3rd verse:
         Zalutao sam u tvoje kamene vrtove...
e|------------------------------------------------|
B|------------------------------------------------|
G|---------------- volume swells -----------------|
D|------------------------------------------------|
A|------------------------------------------------|
E|----2---------------------------------------3---|


Pre chorus:
          U mojoj glavi spava         umorni kompas...
e|----------------------------------------------------|
B|----------------------------------------------------|
G|----------------------------------------------------|
D|--------5-------------------------4-----------------|
A|------5-------------------------4-------------------|
E|----3-------------------------2---------------------|

e|--------------------------------------------------|
B|--------------------------------------------------|
G|--------------------------------------------------|
D|--------5--------5----------------4--------4------|
A|------5---5----5---5------------4---4----4---4----|
E|----3--------3----------------2--------2----------|

Chorus:
         Pijesak mojih satova...         
e|------------------------------------------------|
B|------------------------------------------------|
G|---4--------------------------2b-2b-2b-2br------|   4 x
D|---4------------5--------2----------------------|   play the bends  
A|---2------------5--------2----------------------|   on the 1st & 3rd bar
E|----------------3--------0----------------------|

Solo:
W/wah wah
Fig 1
E|------------------------------------------------------|
e|---12~~~~--12\8--------------------------------9------|
B|-----------------/11~~~----7h9~~-9p7----7--9b----9----|
G|-------------------------9-----------9----------------|
D|------------------------------------------------------|
A|------------------------------------------------------|
E|------------------------------------------------------|

Fig 2
E|------------------------------------------------|
e|---12~~~~--12\8---------------------------------|
B|-----------------/11~~~----7h9~~-9p7----7--9b---|
G|-------------------------9-----------9----------|
D|------------------------------------------------|
A|------------------------------------------------|
E|------------------------------------------------|

Hold feedback
e|--------------------------------------------------------------|
B|--------------------------------------------------------------|
G|---9-----------------7--------------------4/7-----------------|
D|--------------------------------------------------------------|
A|--------------------------------------------------------------|
E|--------------------------------------------------------------|

Repeat fig 2 2x

Chorus: 
         Zašto mislim...
e|-------------------------------|-------------------------0---|
B|-------------------------------|-------------------------0---|
G|---4---------------------------|----4--------------------0---|
D|---4------------5--------2-----|----4----------5---------2---|
A|---2------------5--------2-----|----2----------5---------2---|
E|----------------3--------0-----|---------------3---------0---|

Strum Em 5x

************************************

| /   slide up
| \   slide down
| h   hammer-on
| p   pull-off
| ~   vibrato
| +   natural harmonic
| x   Mute note
| b   Bend
| br  Bend release

************************************
Добавлено: 22.05.2015
Другие материалы по этой песне:
  • Аккорды и текст

Страница создана 22.05.2015
http://primanota.ru/laufer/umorni-kompas-chords.htm
Привет, Гость.
Предлагаем пройти революционный курс по гитаре.
Подарок от PrimaNota.Ru, забирай!