PrimaNota.ru - самый крупный в мире бесплатный архив песенных текстов, аккордов, табулатур и нот


Laufer - Svijet Za Nas - таба, видео

Регистрация Запомнить меня
Войти через:  Facebook Google Twitter Vk Yandex Mail.ru

Laufer - Svijet Za Nas - таба, видео

Печатать
Просмотров: 180
Уроки эстрадного вокала в Санкт-Петербурге
-------------------------------------------------------------------------------
                              Svijet za nas - Laufer
-------------------------------------------------------------------------------

Tabbed by: brian_s
Email: branimir.sremec@kc.t-com.hr

Slide intro:
e----------------------------------------------|
B----------------------------------------------|
G---------12\9--/15----15/17---15\12\9----\7---|
D---9/13---------------------------------------|
A----------------------------------------------|
E----------------------------------------------|

Distorted intro (part 1):          Distorted intro (part 2):
e---------------------------------I-----------------------|
B---------------------------------I-----------------------|
G---9--9-9--7--7-7-7----play 7x---I----------7------------|
D---9--9-9--7--7-7-7--------------I---9p7------9--7-7h9---|
A---7--7-7--5--5-5-5--------------I-------9---------------|
E---------------------------------I-----------------------|


Verse chords:
E5: x79900
D:  x57700
A7: 577000
G6: 355000


VERSE 1:
A7              G6           E5 D E5
U tvom sam gradu u ljetnu noc
A7        G6        E5 D E5
A zelim tu i ostati
A7          G6        E5 D E5
Kazes, naci cemo lijek
A7          G6        E5 D E5
Dopusti da ti pomognem.


VERSE 2:
Mogu li prespavati
Uz tebe sve te godine
Prve suze s lica tvog
Ne zelim da me probude.


CHORUS:
B5
Ne daj mi da vidim
G5       A5
Ovo nije svijet za nas
B5
Ne daj mi da znam
G5                      PLAY DISTORTED INTRO PART 2
Ovo nije svijet za nas.


VERSE 3:
Na tvojim toplim usnama
Zelim da se izgubim
Sa licem svojim pokrij me
I ne daj da me pokvare.


PLAY VERSE 2:


CHORUS 2X:


SOLO:
e--------------------------------------------------|
B--------------------------------------------------|
G----------7-----------------7-----7-9b-----9br7---|
D---9p7------9--7-7h9-----------9------------------|
A-------9------------------------------------------|
E--------------------------------------------------|

e-------------------------------I-------------------------------------|
B-------------------------------I-------------------------------------|
G---9/7---7/6---6-6---- play 2x I---11/9----9/7----7-7-----7--6--4----|
D-------------------------------I-------------------------------------|
A---7/5---5/4---4-4-------------I----9/7----7/5----5-5-----5--4--2----|
E-------------------------------I-------------------------------------|

e-------------------------------I-------------------------------------|
B-------------------------------I-------------------------------------|
G---9/7---7/6---6-6---- play 2x I---11/7---11/7---11/7-------11-------|
D-------------------------------I-------------------------------------|
A---7/5---5/4---4-4-------------I----9/5----9/5----9/5--------9-------|
E-------------------------------I-------------------------------------|

e-----------------------------------------I----------------------|
B-----------12-12-----10------------------I----------------------|
G---11-11----------------11p9---- play 3x I----11p9--------------|
D-----------------------------------------I---------12p9---------|
A-----------------------------------------I----------------------|
E-----------------------------------------I----------------------|

e-----------------------------------------I-----------------------|
B-----------12-12-----10------------------I-----------------------|
G---11-11----------------11-9---- play 3x I----------7------------|
D-----------------------------------------I---9p7------9--7-7h9---|
A-----------------------------------------I-------9---------------|
E-----------------------------------------I-----------------------|

e-----------------------------------------------|
B-----------------------------------------------|
G---7---7-9b---9br7-------------------7----9b---|
D-----9-------------------9-9p7---7h9-----------|
A-------------------------------9---------------|
E-----------------------------------------------|


PLAY VERSE 2:


CHORUS 2x


G5          A5             B5
Svijet....  Svijet....  Za naaaas....
Добавлено: 18.06.2012
Другие материалы по этой песне:
  • Аккорды и текст

Страница создана 18.06.2012
http://primanota.ru/laufer/svijet-za-nas-chords.htm
Привет, Гость.
Предлагаем пройти революционный курс по гитаре.
Подарок от PrimaNota.Ru, забирай!