PrimaNota.ru - самый крупный в мире бесплатный архив песенных текстов, аккордов, табулатур и нот


Laufer - Pustinje - таба, видео

Регистрация Запомнить меня
Войти через:  Facebook Google Twitter Vk Yandex Mail.ru

Laufer - Pustinje - таба, видео

Печатать
Просмотров: 161
-------------------------------------------------------------------------------
                               PUSTINJE - Laufer
-------------------------------------------------------------------------------

Album: Epitaf
Tabbed by: brian_s
Email: branimir.sremec@kc.t-com.hr


Capo on the 4th fret


INTRO:
e------------------ play 3x -------------|---------- play 1x --------|
B----------------------------------------|---------------------------|
G-------4-----4---4--------4-----4---4---|-------4-----4---4-----0---|
D-----7-----7------------6-----6---------|-----7-----7-----------6---|
A---7-----7-----7------7-----7-----7-----|---7-----7-----7-------7---|
E----------------------------------------|---------------------------|


VERSE:
       Dm             Am             C             G            G2
e---------5p4---|-------------|-------------|-------------|---------7---|
B-------7-------|---------5---|---------5---|-------------|-------4-----|
G-----6---------|-------6-----|-------4-----|---------4---|-----4-------|
D---4-----------|-----6-------|-----6-------|-------4-----|---4---------|
A---------------|---4---------|---7---------|-----6-------|-------------|
E---------------|-------------|-------------|---7---------|-------------|



VERSE 1:
Dm      Am        C     G    G2
  Bosih nogu kroz sapat dimnjaka
  Propela se zora iznad praznih kreveta
  Pretvorila oblake u zlatne kocije
  Izgubimo imena, sjene govore
  Potrosimo se kao glavne uloge


PRE CHORUS:
Csus4   C       Csus4   C  
Kada neprijatelj utone u san
Pomjesajmo granice, sa nasim usnama


CHORUS:
Am      Em           Am    Em
Poljubi mi oci su nam kao pustinje
Gdje bez i jedne rijeci sve razumijem


VERSE 2:
Napuni me pricom, zvona spavaju
S' tisucu zacina i lazi nestaju
U pobjedi bi mogli sve izgubiti
Ujutro te necu vise ni prepoznati


PRE CHORUS:   THIS TIME PLAY THE INTRO INSTEAD OF THE C CHORD
Kada neprijatelj utone u san
Pomjesajmo granice, sa nasim usnama


CHORUS:
Poljubi mi oci su nam kao pustinje
Gdje bez i jedne rijeci sve razumijem
Poljubi mi oci su nam kao pustinje
Gdje bez i jedne rijeci sve razumijem


VERSE 3:
Izgubimo imena, sjene govore
Potrosimo se kao glavne uloge


END WITH Dm



p  =  pull-off
Добавлено: 24.03.2012
Другие материалы по этой песне:
  • Аккорды и текст

Страница создана 24.03.2012
http://primanota.ru/laufer/pustinje-chords.htm
Привет, Гость.
Предлагаем пройти революционный курс по гитаре.
Подарок от PrimaNota.Ru, забирай!