PrimaNota.ru - самый крупный в мире бесплатный архив песенных текстов, аккордов, табулатур и нот


Lattepiù - Bomba - аккорды и текст, видео

Регистрация Запомнить меня
Войти через:  Facebook Google Twitter Vk Yandex Mail.ru

Lattepiù - Bomba - аккорды и текст, видео

Печатать
Просмотров: 73
Bomba
Lattepiù
Artist: LATTE+
Song: Bomba
Album: Guerriglia urbana
Tuning: Standard

Power chords:
   A: 577xxx
   B: 799xxx
 Dbm: x466xx
   D: x577xx
   E: x799xx
  F#: 244xxx
F# ': x9 11 11 xx

intro of intro:

e|-------------------------------------------------------|
B|-------------------------------------------------------|
G|-------------------------------------------------------|
D|--7-6-7--6-7-6-7-6-7--6-7-6-7-6-7--6-7-6-7-6-7---6-7-6-|
A|-------------------------------------------------------|
E|-------------------------------------------------------|

intro chords: F# ' D B E (2x)

e|-------------------------------------------------------|
B|-------------------------------------------------------|
G|-------------------------------------------------------|
D|--7-6-7--6-7-6-7-6-7--6-7-6-7-6-7--6-7-6-7-6-7---6-9-6-| (2x)
A|-------------------------------------------------------|
E|-------------------------------------------------------|


F# '
   Non ci sono più limiti in questo schifo di società
   Tutti ormai sono in silenzio
   Tutto ormai è normalità
F# '         D              B           E     
   Vedi cose   molto brutte e non sai cosa pensare
F# '             D              B           E
   Perché spesso è sconveniente ed è meglio ignorare

A                         Dbm
   Dov'è che il mondo finirà?
F# '                        D             E
   Voglio stare sempre bene via da questa realtà
A                      Dbm
   Questa bomba scoppierà
F# '                        D          E
   Dove sono i miei ricordi e la tua felicità?

play intro

F# '            D             B          E
   L'importante è esagerare e non capire che paghiamo
F# '           D               B               E
   Non pensare a tutto il male che con le mani ci facciamo

A                         Dbm
   Dov'è che il mondo finirà?
F# '                        D             E
   Voglio stare sempre bene via da questa realtà
A                      Dbm
   Questa bomba scoppierà
F# '                        D          E
   Dove sono i miei ricordi e la tua felicità?

A A     A A     A A    A A
A A      Dbm Dbm      D D      F# F#  E E     
A A      Dbm Dbm      D D      F# F#  E E  

keep playing these chords while playing 


e|-------------------------------------------------------------|
B|-------------------------------------------------------------|
G|-------------------------------------------------------------|
D|--7--7-6-7--7-6-7--7-6-7-9-7-6-7--7-6-7--7-6-7--7-6-7-9-7-6--|  a few times
A|-------------------------------------------------------------|
E|-------------------------------------------------------------|


solo: 

    A                Dbm             F# '            D

e|-----------------------------------------------------------|
B|-----------------------------------------------------------|
G|-----------------6---------------6-7---6-----6-------------|
D|--7/9--7-----7-9---4---2-----7-9---------------9-7-9--7----|
A|-----------------------------------------------------------|
E|-----------------------------------------------------------|


    A                Dbm             F# '            D              E      A

e|-------------------------------------------------------------------------------|
B|-------------------------------------------------------------------------------|
G|-----------------6---------------6-7---6-----6--------------6------------------|
D|--7/9--7-----7-9---4---2-----7-9---------------9-7-9--7-------9-7-9------7-----|
A|-------------------------------------------------------------------------------|
E|-------------------------------------------------------------------------------|
Добавлено: 25.10.2015
Вам также может быть интересно:
Другие материалы по этой песне:
  • Аккорды и текст

Страница создана 25.10.2015
http://primanota.ru/lattepiu/bomba-chords.htm
Привет, Гость.
Предлагаем пройти революционный курс по гитаре.
Подарок от PrimaNota.Ru, забирай!