PrimaNota.ru - самый крупный в мире бесплатный архив песенных текстов, аккордов, табулатур и нот


Latin For Truth - If Only Your Band Was As Big As Your Ego - таба, видео

Регистрация Запомнить меня
Войти через:  Facebook Google Twitter Vk Yandex Mail.ru

Latin For Truth - If Only Your Band Was As Big As Your Ego - таба, видео

Печатать
Просмотров: 62
Уроки эстрадного вокала в Санкт-Петербурге
This is my first tab. May not be verbatim but its close.

http://www.myspace.com/latinfortruth

E|-----|
B|-----|
G|-----| X2
D|--0--|
A|--0--|
D|--0--|



E|-----------------------------------------------------------|
B|-----------------------------------------------------------|
G|-----------------------------------------------------------|
D|--0--0--0--0--5--5--5--5--5--4--4--4--4--9--9--9--7--7--7--|  X2
A|--0--0--0--0--5--5--5--5--5--4--4--4--4--9--9--9--7--7--7--|
D|--0--0--0--0--5--5--5--5--5--4--4--4--4--9--9--9--7--7--7--|



E|-----------------------------------------------|
B|-----------------------------------------------|
G|-----------------------------------------------|
D|-----------------7-----------------------7-----|  x2
A|-----5--9--5--9-----4--------5--9--5--9-----4--|
D|--0--------------------0--0--------------------|



E|--------------------------------------|----|
B|--------------------------------------|----|
G|--------------------------------------|----|
D|--------------7-----------------7-----|----| x5 (add on 5th time)
A|--5--9--5--9-----4--5--9--5--9-----4--|5---|
D|--------------------------------------|----|



E|-----------|-----|
B|-----------|-----|
G|--7--7--7--|--7--|
D|--7--7--7--|--7--| x1
A|--5--5--5--|--5--|
D|-----------|-----|



E|----------------------|-----------------|
B|----------------------|-----------------|
G|--7--7--7--7--11--12--|--4--4--4--5--7--|
D|--7--7--7--7--11--12--|--4--4--4--5--7--| x4
A|--5--5--5--5--9---10--|--2--2--2--3--5--|
D|----------------------|-----------------|



E|--------------------------|----------------------------------|
B|--------------------------|----------------------------------|
G|--7--7--7--7--7--7--7--7--|--11--11--11--11--11--11--11--11--|
D|--7--7--7--7--7--7--7--7--|--11--11--11--11--11--11--11--11--|
A|--5--5--5--5--5--5--5--5--|--9---9---9---9---9---9---9---9---|
D|--------------------------|----------------------------------|



E|--------------------------|--------------------------------|
B|--------------------------|--------------------------------|
G|--9--9--9--9--9--9--9--9--|--12--12--12--12--11--11--9--9--|
D|--9--9--9--9--9--9--9--9--|--12--12--12--12--11--11--9--9--| x2
A|--7--7--7--7--7--7--7--7--|--10--10--10--10--9---9---7--7--|
D|--------------------------|--------------------------------|



E|-------------------------------|
B|-------------------------------|
G|--7--9--11--12--14--12--11--9--|
D|-------------------------------| x1
A|--5--7--9---10--12--10--9---7--|
D|-------------------------------|



E|-----------|
B|-----------|
G|--7-7---7--|
D|-----------| x5
A|--5-5---5--|
D|-----------|



E|--------------------------------------|
B|--------------------------------------|
G|--------2--0--------------------------|
D|--3--2--------3--5--3--2--3--2--0--2--|
A|--------------------------------------|
D|--------------------------------------|



E|-----------|
B|-----------|
G|--7-7---7--|
D|-----------|
A|--5-5---5--|
D|-----------|



E|--------------------------------------|
B|--------------------------------------|
G|--------2--0--------------------------|
D|--3--2--------3--5--3--2--3--2--0--2--|
A|--------------------------------------|
D|--------------------------------------|



E|-----------|
B|-----------|
G|--7-7---7--|
D|-----------|
A|--5-5---5--|
D|-----------|



E|--------------------------------------|
B|--------------------------------------|
G|--------2--0--------------------------|
D|--3--2--------3--5--3--2--3--2--0--2--|
A|--------------------------------------|
D|--------------------------------------|



E|-----------|
B|-----------|
G|--7-7---7--|
D|-----------|
A|--5-5---5--|
D|-----------|
Добавлено: 07.08.2013
Другие материалы по этой песне:
  • Аккорды и текст

Страница создана 07.08.2013
http://primanota.ru/latin-for-truth/if-only-your-band-was-as-big-as-your-ego-chords.htm
Привет, Гость.
Предлагаем пройти революционный курс по гитаре.
Подарок от PrimaNota.Ru, забирай!