PrimaNota.ru - самый крупный в мире бесплатный архив песенных текстов, аккордов, табулатур и нот


Late Of The Pier - Heartbeat - бас-таба, видео

Регистрация Запомнить меня
Войти через:  Facebook Google Twitter Vk Yandex Mail.ru

Late Of The Pier - Heartbeat - бас-таба, видео

Печатать
Просмотров: 117
Tabbed by: tony d

this song is sick, fantasy black channel 
is definitely the album of the year.
i think everything's right
check it out

NOTE: the chorus is played with a bass synth
so i transcribed the notes here for bass.


Intro:4x
G----------------|
D----------------|
A----------------|
E-4--4--22-2-2-2-|

Verse:4x
G-----------------4--------------------|
D-----2----------4------2--------------|
A-2-4---2-----------2-4---2------------|
E---------22-2-5------------22-2-5-4-2-|

Chorus:1x
pt.1-play 3x                             pt.2-play 7x   after 7th time
G---9-------------------13---------------|----------|----------|
D--------------------11----11(slide)-6-6-|--7-8-7---|----------|
A-7---7(slide)-11-11---------------------|-7--------|-33333333-|
E----------------------------------------|-------8--|----------|

Post-Chorus:4x
G--------------------|
D--------------------|
A-444-222------------|
E---------2222222222-|

Verse:4x
Chorus:2x

Outro:4x
G------------------------|
D------------2-4-----2---|
A-2-4-4--2-4-------4-----|
E----------------5-----2-|
Добавлено: 16.07.2012
Другие материалы по этой песне:
  • Аккорды и текст

Страница создана 16.07.2012
http://primanota.ru/late-of-the-pier/heartbeat-chords.htm
Привет, Гость.
Предлагаем пройти революционный курс по гитаре.
Подарок от PrimaNota.Ru, забирай!