PrimaNota.ru - самый крупный в мире бесплатный архив песенных текстов, аккордов, табулатур и нот


Late Of The Pier - Bathroom Gurgle - бас-таба, видео

Регистрация Запомнить меня
Войти через:  Facebook Google Twitter Vk Yandex Mail.ru

Late Of The Pier - Bathroom Gurgle - бас-таба, видео

Печатать
Просмотров: 151
Уроки эстрадного вокала в Санкт-Петербурге
Standard Tuning

Verse/chorus

|----------------     -------------------|
|----------------     -------------------|
|----------------  x3 --------5----------|
|-7-3-5-22-3-00--     -7-3-5-2--3-5-00---|

Pre-Chorus

|------------------|
|------------------|
|------------------|
|--9-3-0---7-9-3-0-|

Break

|--------------------------------------------------|
|--------------------------------------------------|
|--------------------------------------------------|
|-8-7-0---8-7-0-00-2-3--8-7-0--10 10-12 12--8-7-0--|

"So Put Your Hands On Your..."

|----------------------------------|
|----------------------------------|
|----------------------------------|
|-0--10 10 10 10-55-33-------------|

^ Part 2

|--------------------------------------------- ------|
|-----------------14 14-12 12 12 12----14 14 14 14---|
|------14-14-12 12-----------------------------------|
|12 12-----------------------------------------------|
Добавлено: 08.04.2012
Другие материалы по этой песне:

Страница создана 29.03.2012
http://primanota.ru/late-of-the-pier/bathroom-gurgle-chords.htm
Привет, Гость.
Предлагаем пройти революционный курс по гитаре.
Подарок от PrimaNota.Ru, забирай!