PrimaNota.ru - самый крупный в мире бесплатный архив песенных текстов, аккордов, табулатур и нот


Late Nite Reading - Save It For The Slow Dance - таба, видео

Регистрация Запомнить меня
Войти через:  Facebook Google Twitter Vk Yandex Mail.ru

Late Nite Reading - Save It For The Slow Dance - таба, видео

Печатать
Просмотров: 54
-----------------------------------------------------------------------------------------------
                          Save It for the Slow Dance-Late Nite Reading
-----------------------------------------------------------------------------------------------
Tabbed by: Justin Roux
Email: justinrokss@hotmail.com

This may sound a little rough but it sounds pretty close to the recorded version.
Make sure to check out Dedicated to Deadlines and their covers of Pumped Up Kicks and One Thing!

Tuning: Standard

. = Palm Mute

Intro Part 1

e------------------------------------------------------------------------|
B------------------------------------------------------------------------|
G------5-5-5-5-5-5-5-5---------------------------------------------------|
D------5-5-5-5-5-5-5-5----5-5-5-5-5-5-5-5---3-3-3-3-3-3-3-3--------------|
A------3-3-3-3-3-3-3-3----5-5-5-5-5-5-5-5---1-1-1-1-1-1-1-1--------------|
E-------------------------3-3-3-3-3-3-3-3---1-1-1-1-1-1-1-1--------------|
                                                                                             
e------------------------------------------------------------------------|
B------------------------------------------------------------------------|
G------------------------------------------------------------------------|
D--3-3-3-3-3-3-3-3---X2-------33333333----55555555-----------------------|
A--3-3-3-3-3-3-3-3------------11111111----33333333-----------------------|
E--1-1-1-1-1-1-1-1------------11111111----33333333-----------------------|
                              ........    ........

Intro Part 2

e------------------------------------------------------------------------|
B------------------------------------------------------------------------|
G---------12--9--7--5--5--7--9-----------12--9--7--5--12--9--7--5--------| X2
D-----10-----------------------------10----------------------------------|
A------------------------------------------------------------------------|
E------------------------------------------------------------------------|

Verse
Not much guitar besides F power chord occasionally 
F chord 
e-----
B-----
G-----
D--3--
A--3--
E--1--

Chorus

e-------------------------------------------------------------------------------|
B-------------------------------------------------------------------------------|
G--5--------------------5-------------------5-----------------------------------|
D--5-X16-----3----------5-X16-----3---------5-X16---3---------5-------3---------|
A--3---------3-X16------3---------3-X16-----3-------3-X16-----5-X16---3-X16-----|
E------------1--------------------1-----------------1---------3-------1---------|

e-------------------------------------------------------------------------------|
B-------------------------------------------------------------------------------|
G-------------------------------------------------------------------------------|
D----5--------3-----------------------------------------------------------------|
A----5-X16----3-X16-------------------------------------------------------------|
E----3--------1-----------------------------------------------------------------|

Intro Part 2 X2
Verse
Chorus 

Bridge
e-----------------------------------------------------------------------|
B-----------------------------------------------------------------------|
G-----------------------------------------------------------------------|
D------5---------3--------3------5-------7---5---3-----5--------3-------|
A------5---------3--------3------5-------5---5---3-----5--------3-------|
E------3---------1--------1------3-------5---3---1-----3--------1-------|

e-----------------------------------------------------------------------|
B-----------------------------------------------------------------------|
G-----------------------------------------------------------------------|
D----33333333-----55555555----------------------------------------------|
A----33333333-----55555555----------------------------------------------|
E----11111111-----33333333----------------------------------------------|
     ........     ........

Final Chorus
e-------------------------------------------------------------------------------|
B-------------------------------------------------------------------------------|
G--------------------5----------------------------------------------------------|
D---no guitar--------5-X16----3---------5--------3--------5-------3-------------|
A--------------------3--------3-x16-----5-X16----3-X16----5-X16---3-X16---------|
E-----------------------------1---------3--------1--------3-------1-------------|

Intro part 2 X2

And that's it! Hope you guys like it!
Добавлено: 06.07.2013
Другие материалы по этой песне:
  • Аккорды и текст

Страница создана 06.07.2013
http://primanota.ru/late-nite-reading/save-it-for-the-slow-dance-chords.htm
Привет, Гость.
Предлагаем пройти революционный курс по гитаре.
Подарок от PrimaNota.Ru, забирай!