PrimaNota.ru - самый крупный в мире бесплатный архив песенных текстов, аккордов, табулатур и нот


Late Night Alumni - This This This - таба, видео

Регистрация Запомнить меня
Войти через:  Facebook Google Twitter Vk Yandex Mail.ru

Late Night Alumni - This This This - таба, видео

Печатать
Просмотров: 94
-------------------------------------------------------------------------------
                       LATE NIGHT ALUMNI - This This This (original mix)
-------------------------------------------------------------------------------
Tabbed by: Dassic

This song has one of the catchiest hooks off their new album and is fun to just
play when hanging out on the side. It's pretty easy and straightforward, but let
definitely me know if you think I messed anything up.

Tuning: Standard. You can put a capo on the 5th fret to make it easier on your
hands, but it's very playable without a capo

| h   hammer-on
| p   pull-off

e|------------------------6--------------------------------------------------|
B|--6-5h6p5-5-----5----------6-----------------------------------------------|
G|--------------5-------5------5---------------------------------------------|
D|------------5-------5------------------------------------------------------|
A|---------------------------------------------------------------------------|
E|---------------------------------------------------------------------------|

The rhythm is a little non-standard, so play around with it a bit until it feels
right. Enjoy!
Добавлено: 15.12.2015
Вам также может быть интересно:
Другие материалы по этой песне:
  • Аккорды и текст

Страница создана 15.12.2015
http://primanota.ru/late-night-alumni/this-this-this-chords.htm
Привет, Гость.
Предлагаем пройти революционный курс по гитаре.
Подарок от PrimaNota.Ru, забирай!