PrimaNota.ru - самый крупный в мире бесплатный архив песенных текстов, аккордов, табулатур и нот


Lata Mangeshkar - Ei Megha Dine Akla - таба, видео

Регистрация Запомнить меня
Войти через:  Facebook Google Twitter Vk Yandex Mail.ru

Lata Mangeshkar - Ei Megha Dine Akla - таба, видео

Печатать
Просмотров: 73
E|------------------------------------------------------------------|
B|-------------------------------------------8--8h10-10--8----------|
G|-----7--7h9--9------7-9--9s10--10------10-----------------10--7---|
D|--10--------------------------------------------------------------|
A|------------------------------------------------------------------|
E|------------------------------------------------------------------|

Eimeghla dine e k l a ghor-e t h akena to mon


E|-----------------------------------------------------|
B|--10-10--9--7--7h9--9--7---------7---7-7-------------|
G|-------------------------10--9-------------10--------|
D|-----------------------------------------------------|
A|-----------------------------------------------------|
E|-----------------------------------------------------|

Jaabo kobe paabo aami tomar nimontron

E|-------------------------------------------------------|
B|-----8-8h10-10-8----8-8------8-8h10p8-6h8p6-5h6p5------|
G|--10-------------10-------10---------------------------|
D|-------------------------------------------------------|
A|-------------------------------------------------------|
E|-------------------------------------------------------|

Juthibon-e hiya dole ...

E|------------------------------------------------------------------|
B|-------------------------------------------8--8h10-10--8----------|
G|-----7--7h9--9------7-9--9s10--10------10-----------------10--7---|
D|--10--------------------------------------------------------------|
A|------------------------------------------------------------------|
E|------------------------------------------------------------------|

HaiHai re...
Добавлено: 07.06.2016
Другие материалы по этой песне:
  • Аккорды и текст

Страница создана 07.06.2016
http://primanota.ru/lata-mangeshkar/ei-megha-dine-akla-chords.htm
Привет, Гость.
Предлагаем пройти революционный курс по гитаре.
Подарок от PrimaNota.Ru, забирай!