PrimaNota.ru - самый крупный в мире бесплатный архив песенных текстов, аккордов, табулатур и нот


Lasten Hautausmaa - Kiputyttö - аккорды и текст, видео

Регистрация Запомнить меня
Войти через:  Facebook Google Twitter Vk Yandex Mail.ru

Lasten Hautausmaa - Kiputyttö - аккорды и текст, видео

Печатать
Просмотров: 50
Kiputyttö
Lasten Hautausmaa
-------------------------------------------------------------------------------
                      Lasten Hautausmaa - Kiputyttö
-------------------------------------------------------------------------------
Tabbed by: jebs
Tuning: Standard
Capo 3rd fret

Intro

e|-0--0-0-0-0-0-0--1--1-1-1-1-1-1--0--0-0-0-0-0-0--0-0-0-0---0-0-0-----------|
B|-1--1-1-1-1-1-1--1--1-1-1-1-1-1--1--1-1-1-1-1-1--3-3-3-3---3-3-0-----------|
G|-2--2-2-2-2-2-2--2--2-2-2-2-2-2--2--2-2-2-2-2-2--2-2-2-2---2-2-2-----------|
D|-2--2-2-2-2-2-2--3--3-3-3-3-3-3--2--2-2-2-2-2-2--2-2-2-2---2-2-2-----------|
A|-----------------3--3-3-3-3-3-3--------------------------------------------|
E|-----------------1--1-1-3-1-1-1--------------------------------------------|

e|-0--0-0-0-0-0-0--1--1-1--0--0-0--0--0-0-0-0-0-0--0-0-0-0--0-0-0------------|
B|-1--1-1-1-1-1-1--1--1-1--1--1-1--1--1-1-1-1-1-1--0-0-0-0--0-0-0------------|
G|-2--2-2-2-2-2-2--2--2-2--0--0-0--2--2-2-2-2-2-2--2-2-2-2--2-2-2------------|
D|-2--2-2-2-2-2-2--3--3-3--2--2-2--2--2-2-2-2-2-2--2-2-2-2--2-2-2------------|
A|-----------------3--3-3--3--3-3--------------------------------------------|
E|-----------------1--1-1----------------------------------------------------|

e|-0--0-0-0-0-0-0--1--1-1-1-1-1-1--0--0-0-0-0-0-0--0-0-0-0---0-0-0-----------|
B|-1--1-1-1-1-1-1--1--1-1-1-1-1-1--1--1-1-1-1-1-1--3-3-3-3---3-3-0-----------|
G|-2--2-2-2-2-2-2--2--2-2-2-2-2-2--2--2-2-2-2-2-2--2-2-2-2---2-2-2-----------|
D|-2--2-2-2-2-2-2--3--3-3-3-3-3-3--2--2-2-2-2-2-2--2-2-2-2---2-2-2-----------|
A|-----------------3--3-3-3-3-3-3--------------------------------------------|
E|-----------------1--1-1-3-1-1-1--------------------------------------------|

e|-0--0-0-0-0-0-0--1--1-1-1-1-1-1--3-3-3-3-3-3-3-3-3-3-3-3-3-3-3-3-----------|
B|-1--1-1-1-1-1-1--1--1-1-1-1-1-1--3-3-3-3-3-3-3-3-3-3-3-3-3-3-3-3-----------|
G|-2--2-2-2-2-2-2--2--2-2-2-2-2-2--0-0-0-0-0-0-0-0-0-0-0-0-0-0-0-0-----------|
D|-2--2-2-2-2-2-2--3--3-3-3-3-3-3--0-0-0-0-0-0-0-0-0-0-0-0-0-0-0-0-----------|
A|-----------------3--3-3-3-3-3-3--2-2-2-2-2-2-2-2-2-2-2-2-2-2-2-2-----------|
E|-----------------1--1-1-1-1-1-1--3-3-3-3-3-3-3-3-3-3-3-3-3-3-3-3-----------|

Am                 F               Am
Hei kiputyttö anna tulta tuu jutteleen
                F       C    Am
Ilta on lämmin, mennään ajeleen
                          F           Am
Kaupunki on kaunis kun se kylpee valoissa
          F         G
Tie vie kauas taloista

Am                F                 Am
Pystyyn lahonneen koivuristin poikkipuu on pudonnut
           F     C       Am
Ympärillä jäljet ketkä vieres on maannut
          G                                 Am
Mä laitan takin tähän maahan, että voit levätä
     G                  F                   Am   G
Näet viimeisenä taivaan ennen kuin saat herätä

C              G             Am
Ympärillä vain tyhjää ja pimeää
             F          Am   G
Ennen kuolemaa onko elämää
C           G            Am
Kiputyttönä kivut kotiin vie
         F                Am   G
Kuumasta alas on sun valtatie

     Am    G
Valtatie
     Am    G
Valtatie

Am                   F           Am
Sielu pysyy paikallasi kun unta nään
               F         C   Am
Ympärillä vain tyhjää ja pimeää
              F            Am
En oo lapseni lintu tästä maasta
          F           G
Vain paskiainen Kouvolasta

C              G            Am
Ympärillä vain tyhjää ja pimeää
             F          Am   G
Ennen kuolemaa onko elämää
C           G            Am
Kiputyttönä kivut kotiin vie
         F                Am   G
Kuumasta alas on sun valtatie

C              G             Am
Ympärillä vain tyhjää ja pimeää
             F          Am   G
Ennen kuolemaa onko elämää
C           G            Am
Kiputyttönä kivut kotiin vie
         F                Am   G
Kuumasta alas on sun valtatie

     Am    G
Valtatie
     Am    G
Valtatie
     Am
Valtatie

************************************

| /   slide up
| \   slide down
| h   hammer-on
| p   pull-off
| ~   vibrato
| +   harmonic
| x   Mute note
| b   Bend
| pb  Pre-bend
| br  Bend release
| pbr Pre-bend release
| brb Bend release bend

************************************
Добавлено: 23.12.2015
Другие материалы по этой песне:
  • Аккорды и текст

Страница создана 23.12.2015
http://primanota.ru/lasten-hautausmaa/kiputytto-chords.htm
Привет, Гость.
Предлагаем пройти революционный курс по гитаре.
Подарок от PrimaNota.Ru, забирай!