PrimaNota.ru - самый крупный в мире бесплатный архив песенных текстов, аккордов, табулатур и нот


Last Stop China Town - Hollywood Ending - таба, видео

Регистрация Запомнить меня
Войти через:  Facebook Google Twitter Vk Yandex Mail.ru

Last Stop China Town - Hollywood Ending - таба, видео

Печатать
Просмотров: 73
Hollywood Ending

This is how I learned it.  Confirmed by Ollie and Robin from Last Stop China Town.

.  =  pm

D#-------------------------------------------------------------------|
A#-------------------------------------------------------------------|
F#-------------------------------------------------------------------|
C#---9--------9-9-12-12-12-5------5-5-4-4-5-7-9----------------------|
G#---9--------9-9-12-12-12-5------5-5-4-4-5-7-9----------------------|
C#---9--------9-9-12-12-12-5------5-5-4-4-5-7-9----------------------|

D#-------------------------------------------------------------------|
A#-------------------------------------------------------------------|
F#-------------------------------------------------------------------|
C#---9--------9-9-12-12-12-5------5-5-4-4-5-7-9----------------------|
G#---9--------9-9-12-12-12-5------5-5-4-4-5-7-9----------------------|
C#---9--------9-9-12-12-12-5------5-5-4-4-5-7-9----------------------|

D#--------------------------------------------------------------------|
A#--------------------------------------------------------------------|
F#--------------------------------------------------------------------|
C#---9--9-9---9---9-9--9-9-9-9-12-12--7—-5-5-5-5-5-5-5-5-5-5-12-12-11-|
G#---9--9-9---9---9-9--9-9-9-9-12-12--7--5-5-5-5-5-5-5-5-5-5-12-12-11-|
C#---9--9-9---9---9-9--9-9-9-9-12-12--7--5-5-5-5-5-5-5-5-5-5-12-12-11-|
	. .       . .                      . .   . .

D#--------------------------------------------------------------------|
A#--------------------------------------------------------------------|
F#--------------------------------------------------------------------|
C#---9--9-9---9---9-9--9-9-9-9-12-12--7—-5-5-5-5-5-5-5-5-5-5-12-12-11-|
G#---9--9-9---9---9-9--9-9-9-9-12-12--7--5-5-5-5-5-5-5-5-5-5-12-12-11-|
C#---9--9-9---9---9-9--9-9-9-9-12-12--7--5-5-5-5-5-5-5-5-5-5-12-12-11-|
	. .       . .                      . .   . .

D#--------------------------------------------------------------------|
A#--------------------------------------------------------------------|
F#--------------------------------------------------------------------|
C#---9--9-9---9---9-9--9-9-9-9-12-12--7—-5-5-5-5-5-5-5-5-5-5-12-12-11-|
G#---9--9-9---9---9-9--9-9-9-9-12-12--7--5-5-5-5-5-5-5-5-5-5-12-12-11-|
C#---9--9-9---9---9-9--9-9-9-9-12-12--7--5-5-5-5-5-5-5-5-5-5-12-12-11-|
	. .       . .                      . .   . .
     If our mortality                    should we hang

D#--------------------------------------------------------------------|
A#--------------------------------------------------------------------|
F#--------------------------------------------------------------------|
C#---9--9-9---9---9-9--9-9-9-9-12-12--7—-5-5-5-5-5-5-5-5-5-5-12-12-11-|
G#---9--9-9---9---9-9--9-9-9-9-12-12--7--5-5-5-5-5-5-5-5-5-5-12-12-11-|
C#---9--9-9---9---9-9--9-9-9-9-12-12--7--5-5-5-5-5-5-5-5-5-5-12-12-11-|
	. .       . .                      . .   . .
     What's the personification          decisions made

D#-------------------------------------------------------------------|
A#-------------------------------------------------------------------|
F#-------------------------------------------------------------------|
C#---9--------9-9-12-12-12-5------5-5-4-4-5-7-9----------------------|
G#---9--------9-9-12-12-12-5------5-5-4-4-5-7-9----------------------|
C#---9--------9-9-12-12-12-5------5-5-4-4-5-7-9----------------------|
     Tear the walls down   till   they crumble

D#-------------------------------------------------------------------|
A#-------------------------------------------------------------------|
F#-------------------------------------------------------------------|
C#---9--------9-9-12-12-12-5------5-5-4-4-5-7-9----------------------|
G#---9--------9-9-12-12-12-5------5-5-4-4-5-7-9----------------------|
C#---9--------9-9-12-12-12-5------5-5-4-4-5-7-9----------------------|
     Deny everyone's free  will   and hope they

D#-------------------------------------------------------------------|
A#-------------------------------------------------------------------|
F#-------------------------------------------------------------------|
C#---9--------9-9-12-12-12-5------5-5-4-4-5-7-9----------------------|
G#---9--------9-9-12-12-12-5------5-5-4-4-5-7-9----------------------|
C#---9--------9-9-12-12-12-5------5-5-4-4-5-7-9----------------------|
     Lies, fed to us       rhymes on a childhood

D#-------------------------------------------------------------------|
A#-------------------------------------------------------------------|
F#-------------------------------------------------------------------|
C#---9--------9-9-12-12-12-5------5-5-4-4-5-7-9----------------------|
G#---9--------9-9-12-12-12-5------5-5-4-4-5-7-9----------------------|
C#---9--------9-9-12-12-12-5------5-5-4-4-5-7-9----------------------|
     Now the scene      concludes on this H/wood ending

D#--------------------------------------------------------------------|
A#--------------------------------------------------------------------|
F#--------------------------------------------------------------------|
C#---9--9-9---9---9-9--9-9-9-9-12-12--7—-5-5-5-5-5-5-5-5-5-5-12-12-11-|
G#---9--9-9---9---9-9--9-9-9-9-12-12--7--5-5-5-5-5-5-5-5-5-5-12-12-11-|
C#---9--9-9---9---9-9--9-9-9-9-12-12--7--5-5-5-5-5-5-5-5-5-5-12-12-11-|
	. .       . .                      . .   . .

D#--------------------------------------------------------------------|
A#--------------------------------------------------------------------|
F#--------------------------------------------------------------------|
C#---9--9-9---9---9-9--9-9-9-9-12-12--7—-5-5-5-5-5-5-5-5-5-5-12-12-11-|
G#---9--9-9---9---9-9--9-9-9-9-12-12--7--5-5-5-5-5-5-5-5-5-5-12-12-11-|
C#---9--9-9---9---9-9--9-9-9-9-12-12--7--5-5-5-5-5-5-5-5-5-5-12-12-11-|
	. .       . .                      . .   . .

D#--------------------------------------------------------------------|
A#--------------------------------------------------------------------|
F#--------------------------------------------------------------------|
C#---9--9-9---9---9-9--9-9-9-9-12-12--7—-5-5-5-5-5-5-5-5-5-5-12-12-11-|
G#---9--9-9---9---9-9--9-9-9-9-12-12--7--5-5-5-5-5-5-5-5-5-5-12-12-11-|
C#---9--9-9---9---9-9--9-9-9-9-12-12--7--5-5-5-5-5-5-5-5-5-5-12-12-11-|
	. .       . .                      . .   . .
     Without the want of salvation      above we take away the fear

D#--------------------------------------------------------------------|
A#--------------------------------------------------------------------|
F#--------------------------------------------------------------------|
C#---9--9-9---9---9-9--9-9-9-9-12-12--7—-5-5-5-5-5-5-5-5-5-5-12-12-11-|
G#---9--9-9---9---9-9--9-9-9-9-12-12--7--5-5-5-5-5-5-5-5-5-5-12-12-11-|
C#---9--9-9---9---9-9--9-9-9-9-12-12--7--5-5-5-5-5-5-5-5-5-5-12-12-11-|
	. .       . .                      . .   . .
     Has divine intervention             We know one day

D#-------------------------------------------------------------------|
A#-------------------------------------------------------------------|
F#-------------------------------------------------------------------|
C#---9--------9-9-12-12-12-5------5-5-4-4-5-7-9----------------------|
G#---9--------9-9-12-12-12-5------5-5-4-4-5-7-9----------------------|
C#---9--------9-9-12-12-12-5------5-5-4-4-5-7-9----------------------|
     Tear the walls down   till   they crumble

D#-------------------------------------------------------------------|
A#-------------------------------------------------------------------|
F#-------------------------------------------------------------------|
C#---9--------9-9-12-12-12-5------5-5-4-4-5-7-9----------------------|
G#---9--------9-9-12-12-12-5------5-5-4-4-5-7-9----------------------|
C#---9--------9-9-12-12-12-5------5-5-4-4-5-7-9----------------------|
     Deny everyone's free  will   and hope they

D#-------------------------------------------------------------------|
A#-------------------------------------------------------------------|
F#-------------------------------------------------------------------|
C#---9--------9-9-12-12-12-5------5-5-4-4-5-7-9----------------------|
G#---9--------9-9-12-12-12-5------5-5-4-4-5-7-9----------------------|
C#---9--------9-9-12-12-12-5------5-5-4-4-5-7-9----------------------|
     Lies, fed to us       rhymes on a childhood

D#-------------------------------------------------------------------|
A#-------------------------------------------------------------------|
F#-------------------------------------------------------------------|
C#---9--------9-9-12-12-12-5------5-5-4-4-2-4-4-2-9-(let ring)-------|
G#---9--------9-9-12-12-12-5------5-5-4-4-2-4-4-2-9-(let ring)-------|
C#---9--------9-9-12-12-12-5------5-5-4-4-2-4-4-2-9-(let ring)-------|
     Now the scene      concludes on this H/wood

I don't know Ollie's next bit but here's Robin's.

D#-------------------------------------------------------------------|
A#-------------------------------------14----------------------------|
F#-----2~~2-3-2-0-2~~2/14~~14-15-14-12----15-14----------------------|
C#-------------------------------------------------------------------|
G#-------------------------------------------------------------------|
C#-------------------------------------------------------------------|

More of Ollie's bit.

Robin's bit repeated
D#-------------------------------------------------------------------|
A#-------------------------------------14----------------------------|
F#-----2~~2-3-2-0-2~~2/14~~14-15-14-12----15-14----------------------|
C#-------------------------------------------------------------------|
G#-------------------------------------------------------------------|
C#-------------------------------------------------------------------|

Alon sings the chorus again for the bridge while Ollie  plays.

Outro

D#-------------------------------------------------------------------|
A#-------------------------------------------------------------------|
F#-------------------------------------------------------------------|
C#--12---12-12-12-1212121212—15-15-10-8-8-8-8-88888-15-15-14---------|
G#--12---12-12-12-1212121212-15-15-10-8-8-8-8-88888-15-15-14---------|
C#--12---12-12-12-1212121212-15-15-10-8-8-8-8-88888-15-15-14---------|
         .  .     . . . . .             . .   .....

D#-------------------------------------------------------------------|
A#-------------------------------------------------------------------|
F#-------------------------------------------------------------------|
C#--12---12-12-12-1212121212—15-15-10-8-8-8-8-88888-15-15-14---------|
G#--12---12-12-12-1212121212-15-15-10-8-8-8-8-88888-15-15-14---------|
C#--12---12-12-12-1212121212-15-15-10-8-8-8-8-88888-15-15-14---------|
         .  .     . . . . .             . .   .....
D#-------------------------------------------------------------------|
A#-------------------------------------------------------------------|
F#-------------------------------------------------------------------|
C#---12-------12-12-15-15-15------8-8-8-7-7-7-8-9--------------------|
G#---12-------12-12-15-15-15------8-8-8-7-7-7-8-9--------------------|
C#---12-------12-12-15-15-15------8-8-8-7-7-7-8-9--------------------|

D#-------------------------------------------------------------------|
A#-------------------------------------------------------------------|
F#-------------------------------------------------------------------|
C#---12-------12-12-15-15-15------8-8-8-7-7-7-8-9--------------------|
G#---12-------12-12-15-15-15------8-8-8-7-7-7-8-9--------------------|
C#---12-------12-12-15-15-15------8-8-8-7-7-7-8-9--------------------|

D#-------------------------------------------------------------------|
A#-------------------------------------------------------------------|
F#-------------------------------------------------------------------|
C#---12-------12-12-15-15-15------8-8-8-7-7-7-8-9--------------------|
G#---12-------12-12-15-15-15------8-8-8-7-7-7-8-9--------------------|
C#---12-------12-12-15-15-15------8-8-8-7-7-7-8-9--------------------|
     Tear                         till

D#-------------------------------------------------------------------|
A#-------------------------------------------------------------------|
F#-------------------------------------------------------------------|
C#---12-------12-12-15-15-15------8-8-8-7-7-7-8-9--------------------|
G#---12-------12-12-15-15-15------8-8-8-7-7-7-8-9--------------------|
C#---12-------12-12-15-15-15------8-8-8-7-7-7-8-9--------------------|
     Deny                         will

D#-------------------------------------------------------------------|
A#-------------------------------------------------------------------|
F#-------------------------------------------------------------------|
C#---12-------12-12-15-15-15------8-8-8-7-7-7-8-9--------------------|
G#---12-------12-12-15-15-15------8-8-8-7-7-7-8-9--------------------|
C#---12-------12-12-15-15-15------8-8-8-7-7-7-8-9--------------------|
     Lies                         Rhymes

D#-------------------------------------------------------------------|
A#-------------------------------------------------------------------|
F#-------------------------------------------------------------------|
C#---12-------12-12-15-15-15------8-8-8-7-7--------------------------|
G#---12-------12-12-15-15-15------8-8-8-7-7--------------------------|
C#---12-------12-12-15-15-15------8-8-8-7-7--------------------------|
     Now                          concludes

D#-------------------------------------------------------------------|
A#-------------------------------------------------------------------|
F#-------------------------------------------------------------------|
C#----7-7-5-7----7-7-5-7----7-7-5---12-------12-12-12----------------|
G#----7-7-5-7----7-7-5-7----7-7-5---12-------12-12-12----------------|
C#----7-7-5-7----7-7-5-7----7-7-5---12-------12-12-12----------------|
      Hollywood  Hollywood  Hollywood Ending

www.laststopchinatown.co.uk  or  www.myspace.com/laststopchinatown
Добавлено: 23.04.2012
Другие материалы по этой песне:
  • Аккорды и текст

Страница создана 23.04.2012
http://primanota.ru/last-stop-china-town/hollywood-ending-chords.htm
Привет, Гость.
Предлагаем пройти революционный курс по гитаре.
Подарок от PrimaNota.Ru, забирай!