PrimaNota.ru - самый крупный в мире бесплатный архив песенных текстов, аккордов, табулатур и нот


The Last Sleepless City - Forget The Words - таба, видео

Регистрация Запомнить меня
Войти через:  Facebook Google Twitter Vk Yandex Mail.ru

The Last Sleepless City - Forget The Words - таба, видео

Печатать
Просмотров: 130
Forget The Words
The Last Sleepless City

INTRO Rhythm Part 1
e|---------------------------------------------------------------------|
B|---------------------------------------------------------------------|
G|-------------------5-5---5---5-5----7-7---7---7-7--------------------|
D|--3-3---3---3-3----5-5---5---5-5----7-7---7---7-7----8-8---8---8-8---|
A|--3-3---3---3-3----3-3---3---3-3----5-5---5---5-5----8-8---8---8-8---|
D|--3-3---3---3-3--------------------------------------8-8---8---8-8---|




INTRO Rhythm Part 2
e|-----|-----|-----|-----|
B|-----|-----|-----|-----|
G|-----|--5--|--7--|-----|
D|--3--|--5--|--7--|--8--|
A|--3--|--3--|--5--|--8--|
D|--3--|-----|-----|--8--|
    *     *     *     *


INTRO Lead 
e|--------13------13-------13-------13-------13------|
B|-----13------13-------13-------13-------13----13---|
G|--10------10-------10-------10-------10------------|
D|---------------------------------------------------|
A|---------------------------------------------------|
D|---------------------------------------------------|




INTRO Lead Cont.
e|--------13-------13-------13-------13-------13-----|
B|-----13-------13-------13-------13-------13----13--|
G|---------------------------------------------------|
D|--10-------10-------10-------10-------10-----------|
A|---------------------------------------------------|
D|---------------------------------------------------|

INTRO Lead Cont.
e|--------13-------13-------13-------13-------13-----|
B|-----13-------13-------13-------13-------13----13--|
G|---------------------------------------------------|
D|--12-------12-------12-------12-------12-----------|
A|---------------------------------------------------|
D|---------------------------------------------------|

INTRO Lead Cont.
e|--------13-------13-------13-------13-------13-----|
B|-----13-------13-------13-------13-------13----13--|
G|---------------------------------------------------|
D|---------------------------------------------------|
A|--13-------13-------13-------13-------13-----------|
D|---------------------------------------------------|



BREAK Rhythm
e|-----|-----|-----|-----|
B|-----|-----|-----|-----|
G|-----|--5--|--7--|-----|
D|--3--|--5--|--7--|--8--|
A|--3--|--3--|--5--|--8--|
D|--3--|-----|-----|--8--|

BREAK Lead (follows synth, mostly)
e|------------|--------------------------|----------------|------------------|
B|-----13-10--|-----11-10---11p10--------|-----10----10---|-----------10-----|
G|--10--------|--10---------------12p10--|--10----12----9-|-----9--12----12--|
D|------------|--------------------------|----------------|-12---------------|
A|------------|--------------------------|----------------|------------------|
D|------------|--------------------------|----------------|------------------|




VERSE Rhythm Part 1
e|---------------|
B|---------------|
G|---------------|
D|--10--8--7--5--|
A|--10--8--7--5--|
D|--10--8--7--5--|

VERSE Rhythm Part 2
e|--------------------|
B|--------------------|
G|--------------------|
D|--3----8----7----8--|
A|--3----8----7----8--|
D|--3----8----7----8--|
    *    *    *    *




VERSE Lead Part 1
e|----------------------|
B|----------------------|
G|--15b17r15--14-13-12--|
D|----------------------|
A|----------------------|
D|----------------------|

VERSE Lead Part 2
e|---------------------------|-------------------------|
B|---------------------------|-------------------------|
G|--10----10-12-10----10-12--|--10---10-12-10---10-12--|
D|-----10----------10--------|-----8----------8--------|
A|---------------------------|-------------------------|
D|---------------------------|-------------------------|

VERSE LEAD Part 2 Cont.
e|-------------------------|-------------------------|
B|-------------------------|-------------------------|
G|--10---10-12-10---10-12--|--10---10-12-14-12-10-9--|
D|-----7----------7--------|-----8-------------------|
A|-------------------------|-------------------------|
D|-------------------------|-------------------------|




PRECHORUS Rhythm
e|-------------------------------------------|
B|-------------------------------------------|
G|-------------------------------------------|
D|--7-7-7-7-8-8-8-8-10-10-10-10-12-12-12-12--|
A|--7-7-7-7-8-8-8-8-10-10-10-10-12-12-12-12--|
D|--7-7-7-7-8-8-8-8-10-10-10-10-12-12-12-12--|
    * * * * * * * *  *  *  *  *  *  *  *  * 

PRECHORUS Rhythm Cont.
e|-----------------------------------------------|
B|-----------------------------------------------|
G|-----------------------------------------------|
D|--8-8-8-8-10-10-10-10-12-12-12-12-15-15-15-15--|
A|--8-8-8-8-10-10-10-10-12-12-12-12-15-15-15-15--|
D|--8-8-8-8-10-10-10-10-12-12-12-12-15-15-15-15--|
    * * * *  *  *  *  *  *  *  *  *  *  *  *  * 

PRECHORUS Rhythm Cont.
e|------------------|
B|------------------|
G|------------------|
D|--8--------10-----|
A|--8--------10-----|
D|--8-x16----10-x9--|
    *         *



PRECHORUS Lead
e|-----------------------------------------------|
B|-----------------------------------------------|
G|--9-9-9-9-10-10-10-10-12-12-12-12-14-14-14-14--|
D|--X-X-X-X--X--X--X--X--X--X--X--X--X--X--X--X--|
A|--7-7-7-7--8--8--8--8-10-10-10-10-12-12-12-12--|
D|-----------------------------------------------|

PRECHORUS Lead Cont.
e|--------------------------------------------------|
B|--------------------------------------------------|
G|-10-10-10-10-12-12-12-12-14-14-14-14-17-17-17-17--|
D|--X--X--X--X--X--X--X--X--X--X--X--X--X--X--X--X--|
A|--8--8--8--8-10-10-10-10-12-12-12-12-15-15-15-15--|
D|--------------------------------------------------|

PRECHORUS Lead Cont.
e|------------------|
B|------------------|
G|-10--------12-----|
D|--X---------X-----|
A|--8-x16----10-x9--|
D|------------------|



CHORUS (Rhythm and lead)
e|-----|-----|-----|-----|
B|-----|-----|-----|-----|
G|-----|--5--|--7--|-----|
D|--3--|--5--|--7--|--8--|
A|--3--|--3--|--5--|--8--|
D|--3--|-----|-----|--8--|



VERSE 2 (Rhythm and lead)
e|-----|-----|-----|-----|
B|-----|-----|-----|-----|
G|-----|--5--|--7--|-----|
D|--3--|--5--|--7--|--8--|
A|--3--|--3--|--5--|--8--|
D|--3--|-----|-----|--8--|
    *     *     *     *


PRECHORUS 2 (Rhythm and lead)
e|-------------------------------------------|
B|-------------------------------------------|
G|-------------------------------------------|
D|--7-7-7-7-8-8-8-8-10-10-10-10-12-12-12-12--|
A|--7-7-7-7-8-8-8-8-10-10-10-10-12-12-12-12--|
D|--7-7-7-7-8-8-8-8-10-10-10-10-12-12-12-12--|
    * * * * * * * *  *  *  *  *  *  *  *  *

PRECHORUS Rhythm Cont.
e|-----------------------------------------------|
B|-----------------------------------------------|
G|-----------------------------------------------|
D|--8-8-8-8-10-10-10-10-12-12-12-12-15-15-15-15--|
A|--8-8-8-8-10-10-10-10-12-12-12-12-15-15-15-15--|
D|--8-8-8-8-10-10-10-10-12-12-12-12-15-15-15-15--|
    * * * *  *  *  *  *  *  *  *  *  *  *  *  *

PRECHORUS Rhythm Cont.
e|---------|
B|---------|
G|---------|
D|--8------|
A|--8------|
D|--8-x16--|
    *      

BREAKDOWN (Rhythm and lead)
e|-------------------------------------------------------------|
B|-------------------------------------------------------------|
G|---------------------------------5-5---5-5-5---5-5-5---5-5-5-|
D|-3-3---3-3-3---3-3-3---3-3-3---3-5-5---5-5-5---5-5-5---5-5-5-|
A|-3-3---3-3-3---3-3-3---3-3-3---3-3-3---3-3-3---3-3-3---3-3-3-|
D|-3-3---3-3-3---3-3-3---3-3-3---3-----------------------------|

BREAKDOWN Cont.
e|----------------------------------------------------------------|
B|----------------------------------------------------------------|
G|-5-7-7---7-7-7---7-7-7---7-7-7---7------------------------------|
D|-5-7-7---7-7-7---7-7-7---7-7-7---7-8-8---8-8-8---8-8-8---88888--|
A|-3-5-5---5-5-5---5-5-5---5-5-5---5-8-8---8-8-8---8-8-8---88888--|
D|-----------------------------------8-8---8-8-8---8-8-8---88888--|




ENDING Rhythm
e|---------------------------------------------|
B|---------------------------------------------|
G|----------5~~~~---7~~~~----------------------|
D|--3~~~~---5~~~~---7~~~~---7-5---8-7-5-3-2-3--|
A|--3~~~~---3~~~~---5~~~~---7-5---8-7-5-3-2-3--|
D|--3~~~~-------------------7-5---8-7-5-3-2-3--|



ENDING Lead
e|--------------------------------------------------------------------|
B|--------------------------------------------------------------------|
e|--10/17~~~---10-9/19p17~~~---10-7/19~~~---14-12---15-14-12-10-9-10--|
B|--------------------------------------------------------------------|
e|--------------------------------------------------------------------|
B|--------------------------------------------------------------------|
Добавлено: 16.06.2015
Вам также может быть интересно:
Другие материалы по этой песне:
  • Аккорды и текст

Страница создана 16.06.2015
http://primanota.ru/last-sleepless-city/forget-words-chords.htm
Привет, Гость.
Предлагаем пройти революционный курс по гитаре.
Подарок от PrimaNota.Ru, забирай!