PrimaNota.ru - самый крупный в мире бесплатный архив песенных текстов, аккордов, табулатур и нот


The Last Sleepless City - Dreamers Never Die - таба, видео

Регистрация Запомнить меня
Войти через:  Facebook Google Twitter Vk Yandex Mail.ru

The Last Sleepless City - Dreamers Never Die - таба, видео

Печатать
Просмотров: 124
Dreamers Never Die
The Last Sleepless City


INTRO (Rhythm and lead)
e|-----|-----|-----|-----|
B|-----|-----|-----|-----|
G|-----|--2--|--6--|--4--|
D|--2--|--2--|--6--|--4--|
A|--2--|--0--|--4--|--2--|
D|--2--|-----|-----|-----|
    *     *     *     *


PRECHORUS (Rhythm and lead)
e|--------------------|
B|--------------------|
G|--------------------|
D|--2-22---2-22---2---|
A|--2-22---2-22---22--|
D|--2-22---2-22---22--|


BREAKDOWN Rhythm
e|--------------------------------------------------------------|
B|------------------------------------(elevens-not-ones)--------|
G|--------------------------------------------------------------|
D|--2-2---2222-2-2---2-222--11-11---11111111-11-11---11-111111--|
A|--2-2---2222-2-2---2-222--11-11---11111111-11-11---11-111111--|
D|--2-2---2222-2-2---2-222--11-11---11111111-11-11---11-111111--|
          ****       *               * * * *          *

BREAKDOWN Rhythm Cont.
e|------------------------------------------------------|
B|------------------------------------------------------|
G|------------------------------------------------------|
D|--7-7---7777-7-7---7-777--9-9---9999-9-9---9-9-6-4-6--|
A|--7-7---7777-7-7---7-777--9-9---9999-9-9---9-9-6-4-6--|
D|--7-7---7777-7-7---7-777--9-9---9999-9-9---9-9-6-4-6--|
          ****       *            ****       * * * * *



BREAKDOWN Lead (Play 3 times, then---->)
e|-------------------------|             e|--------------------------|
B|-------------------------|             B|--------------------------|
G|--9-----13--11--9--8--9--|             G|--9----11b13r11--9--8--9--|
D|-----9-------------------|             D|-----9--------------------|
A|-------------------------|             A|--------------------------|
D|-------------------------|             D|--------------------------|





VERSE Part 1 (Rhythm and lead)
e|-------------------------------------------------------------|
B|-------------------------------------------------------------|
G|-------------------------------------------------------------|
D|--22222---2-2---2-2---222-222---22222---2-2---2-2---6-4------|
A|--22222---2-2---2-2---222-222---22222---2-2---2-2-------7-6--|
D|--22222---2-2---2-2---222-222---22222---2-2---2-2------------|
    ****          *     *** ***   ****          *

VERSE Part 1 Cont.
e|-------------------------------------------------------------|
B|-------------------------------------------------------------|
G|--66666---6-6---6-6---666-666--------------------------------|
D|--66666---6-6---6-6---666-666---77777---7-9---9-9---9-6-4-6--|
A|--44444---4-4---4-4---444-444---77777---7-9---9-9---9-6-4-6--|
D|--------------------------------77777---7-9---9-9---9-6-4-6--|
    ****          *     *** ***   ****          *     * * * *




VERSE Part 2 Rhythm
e|-----|-----|-----|-----|
B|-----|-----|-----|-----|
G|-----|--6--|--2--|--4--|
D|--2--|--6--|--2--|--4--|
A|--2--|--4--|--0--|--2--|
D|--2--|-----|-----|-----|




VERSE Part 2 Lead
e|----------------------------------------|
B|----------------------------------------|
G|--9-9-9-4-4-4-13-13-11-11-11-9-9-9-8-8--|
D|--X-X-X-X-X-X--X--X--X--X--X-X-X-X-X-X--|
A|--7-7-7-2-2-2-11-11--9--9--9-7-7-7-6-6--|
D|----------------------------------------|



CHORUS (Rhythm and lead)
e|-----|-----|-----|-----|
B|-----|-----|-----|-----|
G|-----|--6--|--2--|--4--|
D|--2--|--6--|--2--|--4--|
A|--2--|--4--|--0--|--2--|
D|--2--|-----|-----|-----|



POST-CHORUS Lead
e|-------------------------|
B|-------------------------| 
G|--9-----13--11--9--8--9--|
D|-----9-------------------|
A|-------------------------|
D|-------------------------|


For the remainder of the song, everything pretty
much just repeats. The second breakdown is the
same as the first breakdown, and all the other
parts are basically the same. The only thing that
changes is the lead plays the following part during
the second breakdown, everything else just repeats.
So just look for the pieces from above and put
them wherever they belong.



BREAKDOWN 2 Lead
e|------------------------------------------------------------|
B|------------------------------------------------------------|
G|--9---------13-------1111111111-13-11-9---9---------13------|
D|--X----------X--------X-X-X-X-X--X--X-X---X----------X------|
A|--7-x16-----11-x8-----9-9-9-9-9-11--9-7---7-x16-----11-x16--|
D|------------------------------------------------------------|
Добавлено: 16.06.2015
Другие материалы по этой песне:
  • Аккорды и текст

Страница создана 16.06.2015
http://primanota.ru/last-sleepless-city/dreamers-never-die-chords.htm
Привет, Гость.
Предлагаем пройти революционный курс по гитаре.
Подарок от PrimaNota.Ru, забирай!