PrimaNota.ru - самый крупный в мире бесплатный архив песенных текстов, аккордов, табулатур и нот


Last Days Of April - Too Close - аккорды и текст, видео

Регистрация Запомнить меня
Войти через:  Facebook Google Twitter Vk Yandex Mail.ru

Last Days Of April - Too Close - аккорды и текст, видео

Печатать
Просмотров: 93
Too Close
Last Days Of April
Tabbed by Tom Woollan
email:	woollan@hotmail.com

Title:	Too Close
Artist:	Last Days of April
Album:	Ascend To The Stars

*This is all my own work*

Use drop D tuning for this one

Verse
|-3---3-3---3--3--3-3|-3---3-3---3--3--3-3|--------------------|
|-5---5-5---5--5--5-5|-3---3-3---3--3--3-3|-0---0-0---0--0--0-0|
|-5---5-5---5--5--5-5|-5---5-5---5--5--5-5|-0---0-0---0--0--0-0|
|-3---3-3---3--3--3-3|-3---3-3---3--3--3-3|-5---5-5---5--5--5-5|
|-3-x-3-3-x-3--3--3-3|-5-x-5-5-x-5--5--5-5|-5-x-5-5-x-5--5--5-5|
|-3-x-3-3-x-3--3--3-3|-3-x-3-3-x-3--3--3-3|-5-x-5-5-x-5--5--5-5|

|-0---0-0---0--0-----|
|-1---1-1---1--1-----|
|-2---2-2---2--2-----|
|-2-x-2-2-x-2--2-----|     Repeat as required
|-0-x-0-0-x-0--0-----|
|-----------------0-2|

Chorus
|-3---3-3---3--3--3-3|--------------------|-0---0-0---0--0--0-0|
|-3---3-3---3--3--3-3|-0---0-0---0--0--0-0|-1---1-1---1--1--1-1|
|-5---5-5---5--5--5-5|-2---2-2---2--2--2-2|-2---2-2---2--2--2-2|
|-3---3-3---3--3--3-3|-3---3-3---3--3--3-3|-2-x-2-2-x-2--2--2-2|
|-3-x-3-3-x-3--3--3-3|-2-x-2-2-x-2--2--2-2|-0-x-0-0-x-0--0--0-0|
|-3-x-3-3-x-3--3--3-3|-0-x-0-0-x-0--0--0-0|--------------------|

|--------------------|-3---3-3---3--3--3-3|--------------------|
|-0---0-0---0--0--0-0|-3---3-3---3--3--3-3|-0------------------|
|-0---0-0---0--0--0-0|-5---5-5---5--5--5-5|-2------------------|
|-5---5-5---5--5--5-5|-3---3-3---3--3--3-3|-3------------------|
|-5-x-5-5-x-5--5--5-5|-3-x-3-3-x-3--3--3-3|-2------------------|
|-5-x-5-5-x-5--5--5-5|-3-x-3-3-x-3--3--3-3|-0---------------0-2|

Back to the verse, then chorus, etc...fade out...the end.  Next song.


     
Добавлено: 15.08.2013
Вам также может быть интересно:
Другие материалы по этой песне:
  • Аккорды и текст

Страница создана 15.08.2013
http://primanota.ru/last-days-of-april/too-close-chords.htm
Привет, Гость.
Предлагаем пройти революционный курс по гитаре.
Подарок от PrimaNota.Ru, забирай!