PrimaNota.ru - самый крупный в мире бесплатный архив песенных текстов, аккордов, табулатур и нот


Last Days Of April - Aspirins And Alcohol - текст песни, таба, видео

Регистрация Запомнить меня
Войти через:  Facebook Google Twitter Vk Yandex Mail.ru

Last Days Of April - Aspirins And Alcohol - текст песни, таба, видео

Печатать
Просмотров: 176
Tabbed by Tom Woollan
email:	woollan@hotmail.com

Title:	Aspirins And Alcohol
Artist:	Last Days Of April
Album:	Angel Youth

This is a revision of my old tab.  If you saw the old, then I think you'll 
agree that this one is much better, if a little harder to play.

Now unless you have two hands connected to your left arm (they can do that 
now) you will need to strap a capo around the third fret.

*This is all my own work*

Verse 1 - play 4 times
|---------------------------------|---------------------------------|
|---------------------------------|---------------------------------|
|-7-7-7-7-7-7-7-7-7-7-7-7-6-6-6-6-|-6-6-6-6-6-6-6-6-4-4-4-4-4-4-4-4-|
|-7-7-7-7-7-7-7-7-7-7-7-7-7-7-7-7-|-7-7-7-7-7-7-7-7-7-7-7-7-7-7-7-7-|
|-5-5-5-5-5-5-5-5-5-5-5-5-5-5-5-5-|-5-5-5-5-5-5-5-5-5-5-5-5-5-5-5-5-|
|-7-7-7-7-7-7-7-7-5-5-5-5-5-5-5-5-|-3-3-3-3-3-3-3-3-3-3-3-3-3-3-3-3-|

Chorus (part 1) - play twice
|-----5---5-----------5---5-------|-----5---5-----------5---5-------|
|---5---5---5---5---5---5---5---5-|---5---5---5---5---5---5---5---5-|
|-7-----------7---7-----------7---|-7-----------7---7-----------7---|
|---------------------------------|---------------------------------|
|---------------------------------|---------------------------------|
|---------------------------------|---------------------------------|

Chorus (part 2) - play twice first time, four times second and third.
Guitar 1
|-----5-------5-------5-------5---|---------------------------------|
|---5---5---5---5---5---5---5---5-|-----7-------7-------7-------7---|
|-7-------7-------6-------6-------|---7---7---7---7---7---7---7---7-|
|---------------------------------|-9-------9-------9-------9-------|
|---------------------------------|---------------------------------|
|---------------------------------|---------------------------------|
|Guitar 2                                                           |
|---------------------------------|---------------------------------|
|-----7-----7---------5-----5-----|---------------------------------|
|---------------------------------|-----7-----7---------6-----6-----|
|-5-------5-----5-7-------7-----7-|-9-------9-----9-7-------7-----7-|
|---------------------------------|---------------------------------|
|---------------------------------|---------------------------------|

Verse 2 and 3 - play 4 times
|---------------------------------|---------------------------------|
|---------------------------------|-----------------7-7-7-7-7-7-7-7-|
|-7-7-7-7-7-7-7-7-7-7-7-7-6-6-6-6-|-6-6-6-6-6-6-6-6-4-4-4-4-4-4-4-4-|
|-7-7-7-7-7-7-7-7-7-7-7-7-7-7-7-7-|-7-7-7-7-7-7-7-7-7-7-7-7-7-7-7-7-|
|-5-5-5-5-5-5-5-5-5-5-5-5-5-5-5-5-|-5-5-5-5-5-5-5-5-5-5-5-5-5-5-5-5-|
|-7-7-7-7-7-7-7-7-5-5-5-5-5-5-5-5-|-3-3-3-3-3-3-3-3-3-3-3-3-3-3-3-3-|

Bridge - play 4 times
|---------------------------------|---------------------------------|
|---------------------------------|---------------------------------|
|-7-7-7-7-6-6-6-6-7-7-7-7-6-6-6-6-|-7-7-7-7-6-6-6-6-7-7-7-7-6-6-6-6-|
|-7-7-7-7-7-7-7-7-7-7-7-7-7-7-7-7-|-7-7-7-7-7-7-7-7-7-7-7-7-7-7-7-7-|
|-5-5-5-5-5-5-5-5-5-5-5-5-5-5-5-5-|-5-5-5-5-5-5-5-5-5-5-5-5-5-5-5-5-|
|-3-3-3-3-3-3-3-3-3-3-3-3-3-3-3-3-|-5-5-5-5-5-5-5-5-5-5-5-5-5-5-5-5-|

Then just play through the verse 1 part once for the outro.


     
Добавлено: 29.11.2013
Другие материалы по этой песне:
  • Аккорды и текст

Страница создана 24.05.2012
http://primanota.ru/last-days-of-april/aspirins-and-alcohol-chords.htm
Привет, Гость.
Предлагаем пройти революционный курс по гитаре.
Подарок от PrimaNota.Ru, забирай!