PrimaNota.ru - самый крупный в мире бесплатный архив песенных текстов, аккордов, табулатур и нот


Last Days Of April - All Will Break - текст песни, таба, видео

Регистрация Запомнить меня
Войти через:  Facebook Google Twitter Vk Yandex Mail.ru

Last Days Of April - All Will Break - текст песни, таба, видео

Печатать
Просмотров: 125
Tabbed by Tom Woollan
email:	woollan@hotmail.com

Title:	All Will Break
Artist:	Last Days Of April
Album:	Ascend To The Stars

*This is all my own work*

Main Riff (played throughout the entire song.  Everything else is played on 
another guitar)
|-------------------------------------------------|
|-------------------------------------------------|
|--6--6--6--7--7--7--7/12-12-12-11-11-11-11-11-11-|
|--0--0--0--0--0--0--0/-0--0--0--0--0--0--0--0--0-|
|-------------------------------------------------|
|-------------------------------------------------|

Chorus (Just the basic chord progression, you'll have to figure out the 
rhythm for yourselves)
Play twice:
|-0-------0------|-0-------0------|-0-------0------|----------------|
|-3-------2------|-3-------2------|-3-------2------|----------------|
|-0-------2------|-2-------2------|-0-------2------|--(Main Riff)---|
|-0-------2------|-0-------2------|-0-------2------|----------------|
|-x-------0------|-2-------0------|-x-------0------|----------------|
|-3--------------|----------------|-3--------------|----------------|

Solo (let ring)
|-17-17-17----------14-14-14----------------------|
|----------15-15-15-------------------------------|
|----------------------------14-14-14-14-16-16-16-|
|-------------------------------------------------|
|-------------------------------------------------|
|-------------------------------------------------|

|-------------------------------------------------|
|-15-14-------------------------------15-14-15-14-|
|-------14-14-14-14-14-14-14-14-14-14-14-14-14-14-|
|----------14-14-14-16-16-16-16-16-16-------------|
|-------------------------------------------------|
|-------------------------------------------------|

|-17-17-17----------14-14-14-15-14----------------|
|----------15-15-15----------------15-------------|
|-------------------------------------14-14-16-16-|
|-------------------------------------------------|
|-------------------------------------------------|
|-------------------------------------------------|

|-------------------------------------------------|
|-15-15-15----------------------15-15-15-15-------|
|----------14-14-14-14-14-14-14-14-14-14-14-14-14-|
|----------14-14-14-16-16-16-16-16-16-14-14-12-12-|
|-------------------------------------------------|
|-------------------------------------------------|

Verse, then chorus again, then that bit with just the main riff by itself, 
then:
|0---0-0-0-0-0-0-0-2-2-2-2-2-2-2-2|-0-0-0-0-0-0-0-0-2-2-2-2-2-2-2-2-|
|3-2-2-2-2-2-2-2-2-3-3-3-2-3-3-3-3|-2-2-2-2-2-2-2-2-3-3-3-2-3-3-3-3-|
|----2-2-2-2-2-2-2-2-2-2-2-2-2-2-2|-2-2-2-2-2-2-2-2-2-2-2-2-2-2-2-2-|
|----0-0-0-0-0-0-0-0-0-0-0-0-0-0-0|-0-0-0-0-0-0-0-0-0-0-0-0-0-0-0-0-|
|---------------------------------|---------------------------------|
|---------------------------------|---------------------------------|

Repeat that second bar over and over until the end where it goes all funny.

     
Добавлено: 03.07.2013
Другие материалы по этой песне:
  • Аккорды и текст

Страница создана 03.07.2013
http://primanota.ru/last-days-of-april/all-will-break-chords.htm
Привет, Гость.
Предлагаем пройти революционный курс по гитаре.
Подарок от PrimaNota.Ru, забирай!