PrimaNota.ru - самый крупный в мире бесплатный архив песенных текстов, аккордов, табулатур и нот


Lasso - Te Veo - таба, бас-таба, видео

Регистрация Запомнить меня
Войти через:  Facebook Google Twitter Vk Yandex Mail.ru

Lasso - Te Veo - таба, бас-таба, видео

Печатать
Просмотров: 132
                        
Te veo
-Lasso-                          


                                          By: WuillLemus
Guitarra (Capo 6)



     E  E  E  E  E  E  E  E   
E||--3-----3-----3-----3-----|
B||-----5-----------5--------|
G||-----------5-----------5--|
D||--------------------------|
A||--------------------------|
E||--------------------------|


  E  E  E  E  E  E  E  E     E  E  E  E  E  E  E  E   
--3-----3-----3-----3-----|--3-----3-----3-----3-----|
-----5-----------5--------|-----5-----------5--------|
-----------5-----------5--|-----------5-----------5--|
--------------------------|--------------------------|
--------------------------|--------------------------|
--------------------------|--------------------------|


  E  E  E  E  E  E  E  E     E  E  E  E  E  E  E  E   
--3-----3-----3-----3-----|--8-----------7-----------|
-----5-----------5--------|-----0-----------0--------|
-----------5-----------5--|--------0-----------0-----|
--------------------------|-----------0-----------0--|
--------------------------|--------------------------|
--------------------------|--------------------------|


  E  E  E  E  E  E  E  E   
--5-----------3-----------|
-----0-----------0--------|
--------0-----------0-----|
-----------0-----------0--|
--------------------------|
--------------------------|


  T T T T T T T T H.            
----------1-L-L-L-L------------|
--------3-L-L-L-L-L------------|
------2---L-L-L-L-L------------|
----0-L-L-L-L-L-L-L------------|
--0-L-L-L-L-L-L-L-L------------|
-------------------------------|


  T T T T T T T T H.            
----------0-L-L-L-L------------|
--------1-L-L-L-L-L------------|
------0---L-L-L-L-L------------|
----2-L-L-L-L-L-L-L------------|
--3-L-L-L-L-L-L-L-L------------|
-------------------------------|


                                  ^    ^    ^    ^     
  T T T T T T T T H.              Q    Q    Q    Q     
----------3-L-L-L-L------------|--8----7----5---------|
--------3-L-L-L-L-L------------|--0----0----0----5----|
------4---L-L-L-L-L------------|--0----0----0----0----|
----5-L-L-L-L-L-L-L------------|--0----0----0----0----|
--5---L-L-L-L-L-L-L------------|----------------------|
-------------------------------|----------------------|


  T T T T T T T T Q    T T T T T T T T Q     
----------3-L-L-L-L------------1-L-L-L-L----|
--------3-L-L-L-L-L----------3-L-L-L-L-L----|
------4---L-L-L-L-L--------2---L-L-L-L-L----|
----5-L-L-L-L-L-L-L------0-L-L-L-L-L-L-L----|
--5-L-L-L-L-L-L-L-L----0-L-L-L-L-L-L-L-L----|
--------------------------------------------|


                                          v   
  T T T T T T T T Q    T T T T T T T T E  E   
----------0-L-L-L-L--------------------------|
--------1-L-L-L-L-L------------0-L-L-L-L-----|
------0---L-L-L-L-L----------0-L-L-L-L-L--0--|
----2-L-L-L-L-L-L-L--------0-L-L-L-L-L-L--0--|
--3-L-L-L-L-L-L-L-L------2-L-L-L-L-L-L-L--2--|
-----------------------3-L-L-L-L-L-L-L-L--3--|


  ^      v  ^  v  ^       ^                 
  Q.     E  E  E  Q       W                 
--0------0--0--0--0----|--0----------------|
--1------1--1--1--1----|--1----------------|
--0------0--0--0--0----|--0----------------|
--2------2--2--2--2----|--2----------------|
--3------3--3--3--3----|--3----------------|
-----------------------|-------------------|


  ^    ^  v    v  ^  v     ^    ^  v    v  ^  v   
  Q    E  Q    E  E  E     Q    E  Q    E  E  E   
----------0----0--0--0--|----------0----0--0--0--|
----------1----1--1--1--|----------1----1--1--1--|
--0----0--0----0--0--0--|--0----0--0----0--0--0--|
--2----2--2----2--2--2--|--2----2--2----2--2--2--|
--3----3----------------|--3----3----------------|
------------------------|------------------------|


  ^    ^  v    v  ^  v     ^    ^  v    v  ^  v   
  Q    E  Q    E  E  E     Q    E  Q    E  E  E   
----------0----0--0--0--|----------0----0--0--0--|
----------0----0--0--0--|----------0----0--0--0--|
----------0----0--0--0--|----------0----0--0--0--|
--0----0--0----0--0--0--|--0----0--0----0--0--0--|
--2----2----------------|--2----2----------------|
--3----3----------------|--3----3----------------|


  ^    ^  v    v  ^  v     ^    ^  v    v  ^  v   
  Q    E  Q    E  E  E     Q    E  Q    E  E  E   
----------1----1--1--1--|----------0----0--0--0--|
----------3----3--3--3--|----------1----1--1--1--|
--2----2--2----2--2--2--|--0----0--0----0--0--0--|
--0----0--0----0--0--0--|--2----2--2----2--2--2--|
--0----0----------------|--3----3----------------|
------------------------|------------------------|


  ^    ^  v    v  ^  v     ^    ^  v    v  ^  v ^  
  Q    E  Q    E  E  E     Q    E  Q    E  E  S S  
----------0----0--0--0--|----------0----0--0--0-0-|
----------0----0--0--0--|----------1----1--1--1-1-|
----------0----0--0--0--|--2----2--2----2--2--2-2-|
--0----0--0----0--0--0--|--2----2--2----2--2--2-2-|
--2----2----------------|--0----0-----------------|
--3----3----------------|-------------------------|


     ^     ^     ^     ^        ^     ^     ^     ^   
  E  E  E  E  E  E  E  E     E  E  E  E  E  E  E  E   
-----3-----3-----3-----3--|-----3-----3-----3-----3--|
-----3-----3-----3-----3--|-----3-----3-----3-----3--|
-----0-----0-----0-----0--|-----0-----0-----0-----0--|
-----0-----0-----0-----0--|-----0-----0-----0-----0--|
--------------------------|--------------------------|
--------------------------|--------------------------|


     ^     ^     ^     ^     ^         ^       ^   
  E  E  E  E  E  E  E  E     Q    Q    Q    E  E   
-----3-----3-----3-----3--|--3---------3-------0--|
-----3-----3-----3-----3--|--3---------3-------1--|
-----0-----0-----0-----0--|--0---------0-------0--|
-----0-----0-----0-----0--|--0---------0-------2--|
--------------------------|--2---------2-------3--|
--------------------------|-----------------------|


  ^               ^     v      v  ^    ^     
  H.           E  E     Q.     E  Q    Q     
--0------------L--0--|--0------0--0----0----|
--1------------L--1--|--1------1--1----1----|
--0------------L--0--|--0------0--0----0----|
--2------------L--2--|--2------2--2----2----|
--3------------L--3--|--3------3--3----3----|
---------------------|----------------------|


  ^               ^     v      v  ^    ^     
  H.           E  E     Q.     E  Q    Q     
--0------------L--0--|--0------0--0----0----|
--1------------L--1--|--1------1--1----1----|
--2------------L--2--|--2------2--2----2----|
--2------------L--2--|--2------2--2----2----|
--0------------L--0--|--0------0--0----0----|
---------------------|----------------------|


  ^               ^     v      v  ^      ^   
  H.           E  E     Q.     E  Q.     E   
--0---------------0--|--0------0--0------0--|
--0------------L--0--|--0------0--0------0--|
--0------------L--0--|--0------0--0------0--|
--0------------L--0--|--0------0--0------0--|
--2------------L--2--|--2------2--2------2--|
--3---------------3--|--3------3--3------3--|


  ^      v  ^      v     ^      v  ^    ^     
  Q.     E  Q.     E     Q.     E  Q    Q     
--0------0--0------0--|--0------0--0----0----|
--1------1--0------0--|--1------1--0----0----|
--0------0--0------0--|--0------0--0----0----|
--2------2--0------0--|--2------2--0----0----|
--3------3--2------2--|--3------3--2----2----|
------------3------3--|------------3----3----|


  ^               ^     v      v  ^    ^     
  H.           E  E     Q.     E  Q    Q     
--0------------L--0--|--0------0--0----0----|
--1------------L--1--|--1------1--1----1----|
--0------------L--0--|--0------0--0----0----|
--2------------L--2--|--2------2--2----2----|
--3------------L--3--|--3------3--3----3----|
---------------------|----------------------|


  ^               ^     v      v  ^    ^     
  H.           E  E     Q.     E  Q    Q     
--0------------L--0--|--0------0--0----0----|
--1------------L--1--|--1------1--1----1----|
--2------------L--2--|--2------2--2----2----|
--2------------L--2--|--2------2--2----2----|
--0------------L--0--|--0------0--0----0----|
---------------------|----------------------|


  ^               ^     v      v  ^      ^   
  H.           E  E     Q.     E  Q.     E   
--0---------------0--|--0------0--0------0--|
--0------------L--0--|--0------0--0------0--|
--0------------L--0--|--0------0--0------0--|
--0------------L--0--|--0------0--0------0--|
--2------------L--2--|--2------2--2------2--|
--3---------------3--|--3------3--3------3--|


  ^      v  ^      v     ^      v  ^    ^     
  Q.     E  Q.     E     Q.     E  Q    Q     
--0------0--0------0--|--0------0--0----0----|
--1------1--0------0--|--1------1--0----0----|
--0------0--0------0--|--0------0--0----0----|
--2------2--0------0--|--2------2--0----0----|
--3------3--2------2--|--3------3--2----2----|
------------3------3--|------------3----3----|


  ^     ^     ^     ^        ^     ^     ^     ^      
  E  E  E  E  E  E  E  E     E  E  E  E  E  E  E  E   
--1-----1-----1-----1-----|--1-----1-----1-----1-----|
--1-----1-----1-----1-----|--1-----1-----1-----1-----|
--2-----2-----2-----2-----|--2-----2-----2-----2-----|
--3-----3-----3-----3-----|--3-----3-----3-----3-----|
--3-----3-----3-----3-----|--3-----3-----3-----3-----|
--------------------------|--------------------------|


  E  E  E  E  E  E  E  E     E  E  E  E  E  E  E  E   
--3-----3-----3-----3-----|--3-----3-----3-----3-----|
-----5-----------5--------|-----5-----------5--------|
-----------5-----------5--|-----------5-----------5--|
--------------------------|--------------------------|
--------------------------|--------------------------|
--------------------------|--------------------------|


  E  E  E  E  E  E  E  E     E  E  E  E  E  E  E  E   
--3-----3-----3-----3-----|--3-----3-----3-----3-----|
-----5-----------5--------|-----5-----------5--------|
-----------5-----------5--|-----------5-----------5--|
--------------------------|--------------------------|
--------------------------|--------------------------|
--------------------------|--------------------------|


  E  E  E  E  E  E  E  E     E  E  E  E  E  E  E  E   
--8-----------7-----------|--5-----------3-----------|
-----0-----------0--------|-----0-----------0--------|
--------0-----------0-----|--------0-----------0-----|
-----------0-----------0--|-----------0-----------0--|
--------------------------|--------------------------|
--------------------------|--------------------------|


  T T T T T T T T H.            
----------1-L-L-L-L------------|
--------3-L-L-L-L-L------------|
------2---L-L-L-L-L------------|
----0-L-L-L-L-L-L-L------------|
--0-L-L-L-L-L-L-L-L------------|
-------------------------------|


  T T T T T T T T H.            
----------0-L-L-L-L------------|
--------1-L-L-L-L-L------------|
------0---L-L-L-L-L------------|
----2-L-L-L-L-L-L-L------------|
--3-L-L-L-L-L-L-L-L------------|
-------------------------------|


                                  ^    ^    ^    ^     
  T T T T T T T T H.              Q    Q    Q    Q     
----------3-L-L-L-L------------|--8----7----5---------|
--------3-L-L-L-L-L------------|--0----0----0----5----|
------4---L-L-L-L-L------------|--0----0----0----0----|
----5-L-L-L-L-L-L-L------------|--0----0----0----0----|
--5-L-L-L-L-L-L-L-L------------|----------------------|
-------------------------------|----------------------|


  T T T T T T T T Q    T T T T T T T T Q     
----------3-L-L-L-L------------1-L-L-L-L----|
--------3-L-L-L-L-L----------3-L-L-L-L-L----|
------4---L-L-L-L-L--------2---L-L-L-L-L----|
----5-L-L-L-L-L-L-L------0-L-L-L-L-L-L-L----|
--5-L-L-L-L-L-L-L-L----0-L-L-L-L-L-L-L-L----|
--------------------------------------------|


                                          v   
  T T T T T T T T Q    T T T T T T T T E  E   
----------0-L-L-L-L--------------------------|
--------1-L-L-L-L-L------------0-L-L-L-L-----|
------0---L-L-L-L-L----------0-L-L-L-L-L--0--|
----2-L-L-L-L-L-L-L--------0-L-L-L-L-L-L--0--|
--3-L-L-L-L-L-L-L-L------2-L-L-L-L-L-L-L--2--|
-----------------------3-L-L-L-L-L-L-L-L--3--|


  ^      v  ^  v  ^       ^                 
  Q.     E  E  E  Q       W                 
--0------0--0--0--0----|--0----------------|
--1------1--1--1--1----|--1----------------|
--0------0--0--0--0----|--0----------------|
--2------2--2--2--2----|--2----------------|
--3------3--3--3--3----|--3----------------|
-----------------------|-------------------|


  ^    ^  v    v  ^  v     ^    ^  v    v  ^  v   
  Q    E  Q    E  E  E     Q    E  Q    E  E  E   
----------0----0--0--0--|----------0----0--0--0--|
----------1----1--1--1--|----------1----1--1--1--|
--0----0--0----0--0--0--|--0----0--0----0--0--0--|
--2----2--2----2--2--2--|--2----2--2----2--2--2--|
--3----3----------------|--3----3----------------|
------------------------|------------------------|


  ^    ^  v    v  ^  v     ^    ^  v    v  ^  v   
  Q    E  Q    E  E  E     Q    E  Q    E  E  E   
----------0----0--0--0--|----------0----0--0--0--|
----------0----0--0--0--|----------0----0--0--0--|
----------0----0--0--0--|----------0----0--0--0--|
--0----0--0----0--0--0--|--0----0--0----0--0--0--|
--2----2----------------|--2----2----------------|
--3----3----------------|--3----3----------------|


  ^    ^  v    v  ^  v     ^    ^  v    v  ^  v   
  Q    E  Q    E  E  E     Q    E  Q    E  E  E   
----------1----1--1--1--|----------0----0--0--0--|
----------3----3--3--3--|----------1----1--1--1--|
--2----2--2----2--2--2--|--0----0--0----0--0--0--|
--0----0--0----0--0--0--|--2----2--2----2--2--2--|
--0----0----------------|--3----3----------------|
------------------------|------------------------|


  ^    ^  v    v  ^  v     ^    ^  v    v  ^  v ^  
  Q    E  Q    E  E  E     Q    E  Q    E  E  S S  
----------0----0--0--0--|----------0----0--0--0-0-|
----------0----0--0--0--|----------1----1--1--1-1-|
----------0----0--0--0--|--2----2--2----2--2--2-2-|
--0----0--0----0--0--0--|--2----2--2----2--2--2-2-|
--2----2----------------|--0----0-----------------|
--3----3----------------|-------------------------|


     ^     ^     ^     ^        ^     ^     ^     ^   
  E  E  E  E  E  E  E  E     E  E  E  E  E  E  E  E   
-----3-----3-----3-----3--|-----3-----3-----3-----3--|
-----3-----3-----3-----3--|-----3-----3-----3-----3--|
-----0-----0-----0-----0--|-----0-----0-----0-----0--|
-----0-----0-----0-----0--|-----0-----0-----0-----0--|
--------------------------|--------------------------|
--------------------------|--------------------------|


     ^     ^     ^     ^     ^         ^       ^   
  E  E  E  E  E  E  E  E     Q    Q    Q    E  E   
-----3-----3-----3-----3--|--3---------3-------0--|
-----3-----3-----3-----3--|--3---------3-------1--|
-----0-----0-----0-----0--|--0---------0-------0--|
-----0-----0-----0-----0--|--0---------0-------2--|
--------------------------|--2---------2-------3--|
--------------------------|-----------------------|


  ^               ^     v      v  ^    ^     
  H.           E  E     Q.     E  Q    Q     
--0------------L--0--|--0------0--0----0----|
--1------------L--1--|--1------1--1----1----|
--0------------L--0--|--0------0--0----0----|
--2------------L--2--|--2------2--2----2----|
--3------------L--3--|--3------3--3----3----|
---------------------|----------------------|


  ^               ^     v      v  ^    ^     
  H.           E  E     Q.     E  Q    Q     
--0------------L--0--|--0------0--0----0----|
--1------------L--1--|--1------1--1----1----|
--2------------L--2--|--2------2--2----2----|
--2------------L--2--|--2------2--2----2----|
--0------------L--0--|--0------0--0----0----|
---------------------|----------------------|


  ^               ^     v      v  ^      ^   
  H.           E  E     Q.     E  Q.     E   
--0---------------0--|--0------0--0------0--|
--0------------L--0--|--0------0--0------0--|
--0------------L--0--|--0------0--0------0--|
--0------------L--0--|--0------0--0------0--|
--2------------L--2--|--2------2--2------2--|
--3---------------3--|--3------3--3------3--|


  ^      v  ^      v     ^      v  ^    ^     
  Q.     E  Q.     E     Q.     E  Q    Q     
--0------0--0------0--|--0------0--0----0----|
--1------1--0------0--|--1------1--0----0----|
--0------0--0------0--|--0------0--0----0----|
--2------2--0------0--|--2------2--0----0----|
--3------3--2------2--|--3------3--2----2----|
------------3------3--|------------3----3----|


  ^               ^     v      v  ^    ^     
  H.           E  E     Q.     E  Q    Q     
--0------------L--0--|--0------0--0----0----|
--1------------L--1--|--1------1--1----1----|
--0------------L--0--|--0------0--0----0----|
--2------------L--2--|--2------2--2----2----|
--3------------L--3--|--3------3--3----3----|
---------------------|----------------------|


  ^               ^     v      v  ^    ^     
  H.           E  E     Q.     E  Q    Q     
--0------------L--0--|--0------0--0----0----|
--1------------L--1--|--1------1--1----1----|
--2------------L--2--|--2------2--2----2----|
--2------------L--2--|--2------2--2----2----|
--0------------L--0--|--0------0--0----0----|
---------------------|----------------------|


  ^               ^     v      v  ^      ^   
  H.           E  E     Q.     E  Q.     E   
--0---------------0--|--0------0--0------0--|
--0------------L--0--|--0------0--0------0--|
--0------------L--0--|--0------0--0------0--|
--0------------L--0--|--0------0--0------0--|
--2------------L--2--|--2------2--2------2--|
--3---------------3--|--3------3--3------3--|


  ^      v  ^      v     ^      v  ^    ^     
  Q.     E  Q.     E     Q.     E  Q    Q     
--0------0--0------0--|--0------0--0----0----|
--1------1--0------0--|--1------1--0----0----|
--0------0--0------0--|--0------0--0----0----|
--2------2--0------0--|--2------2--0----0----|
--3------3--2------2--|--3------3--2----2----|
------------3------3--|------------3----3----|


  ^     ^     ^     ^        ^     ^     ^     ^      
  E  E  E  E  E  E  E  E     E  E  E  E  E  E  E  E   
--1-----1-----1-----1-----|--1-----1-----1-----1-----|
--1-----1-----1-----1-----|--1-----1-----1-----1-----|
--2-----2-----2-----2-----|--2-----2-----2-----2-----|
--3-----3-----3-----3-----|--3-----3-----3-----3-----|
--3-----3-----3-----3-----|--3-----3-----3-----3-----|
--------------------------|--------------------------|


  ^  v  ^      v  ^  v     ^  v  ^      v  ^  v   
  E  E  Q.     E  E  E     E  E  Q.     E  E  E   
--0--0--0------0--0--0--|--0--0--0------0--0--0--|
--1--1--1------1--1--1--|--1--1--1------1--1--1--|
--0--0--0------0--0--0--|--0--0--0------0--0--0--|
--2--2--2------2--2--2--|--2--2--2------2--2--2--|
--3--3--3------3--3--3--|--3--3--3------3--3--3--|
------------------------|------------------------|


  ^  v  ^      v  ^  v     ^  v  ^      v  ^  v   
  E  E  Q.     E  E  E     E  E  Q.     E  E  E   
--1--1--1------1--1--1--|--1--1--1------1--1--1--|
--1--1--1------1--1--1--|--1--1--1------1--1--1--|
--2--2--2------2--2--2--|--2--2--2------2--2--2--|
--3--3--3------3--3--3--|--3--3--3------3--3--3--|
--3--3--3------3--3--3--|--3--3--3------3--3--3--|
------------------------|------------------------|


  ^  v  ^      v  ^  v     ^  v  ^      v  ^  v   
  E  E  Q.     E  E  E     E  E  Q.     E  E  E   
--0--0--0------0--0--0--|--0--0--0------0--0--0--|
--1--1--1------1--1--1--|--1--1--1------1--1--1--|
--2--2--2------2--2--2--|--2--2--2------2--2--2--|
--2--2--2------2--2--2--|--2--2--2------2--2--2--|
--0--0--0------0--0--0--|--0--0--0------0--0--0--|
------------------------|------------------------|


  ^  v  ^      v  ^  v     ^  v  ^      v  ^  v   
  E  E  Q.     E  E  E     E  E  Q.     E  E  E   
--0--0--0------0--0--0--|--0--0--0------0--0--0--|
--0--0--0------0--0--0--|--0--0--0------0--0--0--|
--0--0--0------0--0--0--|--0--0--0------0--0--0--|
--0--0--0------0--0--0--|--0--0--0------0--0--0--|
--2--2--2------2--2--2--|--2--2--2------2--2--2--|
--3--3--3------3--3--3--|--3--3--3------3--3--3--|


  ^  v  ^      v  ^  v     ^  v  ^      v  ^  v   
  E  E  Q.     E  E  E     E  E  Q.     E  E  E   
--------0------0--0--0--|--------0------0--0--0--|
--------1------1--1--1--|--------1------1--1--1--|
--0--0--0------0--0--0--|--0--0--0------0--0--0--|
--2--2--2------2--2--2--|--2--2--2------2--2--2--|
--3--3--3---------------|--3--3--3---------------|
------------------------|------------------------|


  ^  v  ^      v  ^  v     ^  v  ^      v  ^  v   
  E  E  Q.     E  E  E     E  E  Q.     E  E  E   
--------0------0--0--0--|--------0------0--0--0--|
--------1------1--1--1--|--------1------1--1--1--|
--0--0--0------0--0--0--|--0--0--0------0--0--0--|
--2--2--2------2--2--2--|--2--2--2------2--2--2--|
--3--3--3---------------|--3--3--3---------------|
------------------------|------------------------|


  ^  v  ^      v  ^  v     ^  v  ^      v  ^  v   
  E  E  Q.     E  E  E     E  E  Q.     E  E  E   
--------0------0--0--0--|--------1------1--1--1--|
--------1------1--1--1--|--------1------1--1--1--|
--0--0--0------0--0--0--|--2--2--2------2--2--2--|
--2--2--2------2--2--2--|--3--3--3------3--3--3--|
--3--3--3---------------|--3--3--3---------------|
------------------------|------------------------|


  ^  v  ^      v  ^  v     ^  v  ^      v  ^  v   
  E  E  Q.     E  E  E     E  E  Q.     E  E  E   
--------0------0--0--0--|---------------0--0--0--|
--------1------1--1--1--|--------0------0--0--0--|
--0--0--0------0--0--0--|--------0------0--0--0--|
--2--2--2------2--2--2--|--0--0--0------0--0--0--|
--3--3--3---------------|--2--2--2---------------|
------------------------|--3--3--3---------------|


  ^  v  ^      v  ^  v     ^  v  ^      v  ^  v   
  E  E  Q.     E  E  E     E  E  Q.     E  E  E   
--------0------0--0--0--|--------1------1--1--1--|
--------1------1--1--1--|--------1------1--1--1--|
--0--0--0------0--0--0--|--2--2--2------2--2--2--|
--2--2--2------2--2--2--|--3--3--3------3--3--3--|
--3--3--3---------------|--3--3--3---------------|
------------------------|------------------------|


  ^  v  ^      v  ^  v     ^  v  ^      v  ^  v   
  E  E  Q.     E  E  E     E  E  Q.     E  E  E   
--------0------0--0--0--|---------------0--0--0--|
--------1------1--1--1--|--------0------0--0--0--|
--0--0--0------0--0--0--|--------0------0--0--0--|
--2--2--2------2--2--2--|--0--0--0------0--0--0--|
--3--3--3---------------|--2--2--2---------------|
------------------------|--3--3--3---------------|


  ^  v  ^      v  ^  v     ^  v  ^      v  ^  v   
  E  E  Q.     E  E  E     E  E  Q.     E  E  E   
--------0------0--0--0--|--------1------1--1--1--|
--------1------1--1--1--|--------1------1--1--1--|
--2--2--2------2--2--2--|--2--2--2------2--2--2--|
--2--2--2------2--2--2--|--3--3--3------3--3--3--|
--0--0--0---------------|--3--3--3---------------|
------------------------|------------------------|


  ^  v  ^      v  ^  v     ^  v  ^      v  ^  v   
  E  E  Q.     E  E  E     E  E  Q.     E  E  E   
--------0------0--0--0--|---------------0--0--0--|
--------1------1--1--1--|--------0------0--0--0--|
--0--0--0------0--0--0--|--------0------0--0--0--|
--2--2--2------2--2--2--|--0--0--0------0--0--0--|
--3--3--3---------------|--2--2--2---------------|
------------------------|--3--3--3---------------|


  ^  v  ^      v  ^  v     ^  v  ^      v  ^  v   
  E  E  Q.     E  E  E     E  E  Q.     E  E  E   
--------0------0--0--0--|--------1------1--1--1--|
--------1------1--1--1--|--------1------1--1--1--|
--2--2--2------2--2--2--|--2--2--2------2--2--2--|
--2--2--2------2--2--2--|--3--3--3------3--3--3--|
--0--0--0---------------|--3--3--3---------------|
------------------------|------------------------|


  ^  v  ^      v  ^  v     ^  v  ^      v  ^  v   
  E  E  Q.     E  E  E     E  E  Q.     E  E  E   
--------0------0--0--0--|--------1------1--1--1--|
--------1------1--1--1--|--------3------3--3--3--|
--0--0--0------0--0--0--|--2--2--2------2--2--2--|
--2--2--2------2--2--2--|--0--0--0------0--0--0--|
--3--3--3---------------|--0--0--0---------------|
------------------------|------------------------|


     ^     ^     ^     ^        ^     ^     ^     ^   
  E  E  E  E  E  E  E  E     E  E  E  E  E  E  E  E   
-----3-----3-----3-----3--|-----3-----3-----3-----3--|
-----3-----3-----3-----3--|-----3-----3-----3-----3--|
-----0-----0-----0-----0--|-----0-----0-----0-----0--|
-----0-----0-----0-----0--|-----0-----0-----0-----0--|
--------------------------|--------------------------|
--------------------------|--------------------------|


     ^     ^     ^     ^     ^         ^       ^   
  E  E  E  E  E  E  E  E     Q    Q    Q    E  E   
-----3-----3-----3-----3--|--3---------3-------0--|
-----3-----3-----3-----3--|--3---------3-------1--|
-----0-----0-----0-----0--|--0---------0-------0--|
-----0-----0-----0-----0--|--0---------0-------2--|
--------------------------|--2---------2-------3--|
--------------------------|-----------------------|


  ^               ^     v      v  ^    ^     
  H.           E  E     Q.     E  Q    Q     
--0------------L--0--|--0------0--0----0----|
--1------------L--1--|--1------1--1----1----|
--0------------L--0--|--0------0--0----0----|
--2------------L--2--|--2------2--2----2----|
--3------------L--3--|--3------3--3----3----|
---------------------|----------------------|


  ^               ^     v      v  ^    ^     
  H.           E  E     Q.     E  Q    Q     
--0------------L--0--|--0------0--0----0----|
--1------------L--1--|--1------1--1----1----|
--2------------L--2--|--2------2--2----2----|
--2------------L--2--|--2------2--2----2----|
--0------------L--0--|--0------0--0----0----|
---------------------|----------------------|


  ^               ^     v      v  ^      ^   
  H.           E  E     Q.     E  Q.     E   
--0---------------0--|--0------0--0------0--|
--0------------L--0--|--0------0--0------0--|
--0------------L--0--|--0------0--0------0--|
--0------------L--0--|--0------0--0------0--|
--2------------L--2--|--2------2--2------2--|
--3---------------3--|--3------3--3------3--|


  ^      v  ^      v     ^      v  ^    ^     
  Q.     E  Q.     E     Q.     E  Q    Q     
--0------0--0------0--|--0------0--0----0----|
--1------1--0------0--|--1------1--0----0----|
--0------0--0------0--|--0------0--0----0----|
--2------2--0------0--|--2------2--0----0----|
--3------3--2------2--|--3------3--2----2----|
------------3------3--|------------3----3----|


  ^               ^     v      v  ^    ^     
  H.           E  E     Q.     E  Q    Q     
--0------------L--0--|--0------0--0----0----|
--1------------L--1--|--1------1--1----1----|
--0------------L--0--|--0------0--0----0----|
--2------------L--2--|--2------2--2----2----|
--3------------L--3--|--3------3--3----3----|
---------------------|----------------------|


  ^               ^     v      v  ^    ^     
  H.           E  E     Q.     E  Q    Q     
--0------------L--0--|--0------0--0----0----|
--1------------L--1--|--1------1--1----1----|
--2------------L--2--|--2------2--2----2----|
--2------------L--2--|--2------2--2----2----|
--0------------L--0--|--0------0--0----0----|
---------------------|----------------------|


  ^               ^     v      v  ^      ^   
  H.           E  E     Q.     E  Q.     E   
--0---------------0--|--0------0--0------0--|
--0------------L--0--|--0------0--0------0--|
--0------------L--0--|--0------0--0------0--|
--0------------L--0--|--0------0--0------0--|
--2------------L--2--|--2------2--2------2--|
--3---------------3--|--3------3--3------3--|


  ^      v  ^      v     ^      v  ^    ^     
  Q.     E  Q.     E     Q.     E  Q    Q     
--0------0--0------0--|--0------0--0----0----|
--1------1--0------0--|--1------1--0----0----|
--0------0--0------0--|--0------0--0----0----|
--2------2--0------0--|--2------2--0----0----|
--3------3--2------2--|--3------3--2----2----|
------------3------3--|------------3----3----|


  ^                     
  Q.     Q.     E  E    
--0-------------------||
--1-------------------||
--0-------------------||
--2-------------------||
--3-------------------||
----------------------||




Duration Legend
---------------
W - whole
H - half
Q - quarter
E - 8th
S - 16th
T - 32nd
X - 64th
. - note dotted
|-n-|  - n-tuplets


Tablature Legend
----------------
L - tied note
x - dead note
g - grace note
(n) - ghost note
> - accentuded note
NH - natural harmonic
AH - artificial harmonic
TH - tapped harmonic
SH - semi harmonic
PH - pitch harmonic
h - hammer on
p - pull off
b - bend
br - bendRelease
pb - preBend
pbr - preBendRelease
brb - bendReleaseBend
\n/ - tremolo bar dip
\n - tremolo bar dive
-/n - tremolo bar Release up
/n\ - tremolo bar inverted dip
/n - tremolo bar return
-\n - tremolo bar Release down
S - shift slide
s - legato slide
/ -  slide into from below or out of upwards
\ -  slide into from above or out of downwards
~ - vibrato
W - wide vibrato
tr - trill
TP - tremolo picking
T - tapping
S - slap
P - pop
< - fade in
^ - brush up
v - brush down
Добавлено: 21.12.2013
Другие материалы по этой песне:

Страница создана 25.08.2013
http://primanota.ru/lasso/te-veo-chords.htm
Привет, Гость.
Предлагаем пройти революционный курс по гитаре.
Подарок от PrimaNota.Ru, забирай!