PrimaNota.ru - самый крупный в мире бесплатный архив песенных текстов, аккордов, табулатур и нот


Lasso - Algo Mas - таба, видео

Регистрация Запомнить меня
Войти через:  Facebook Google Twitter Vk Yandex Mail.ru

Lasso - Algo Mas - таба, видео

Печатать
Просмотров: 44
Esta canción la tenía hace mucho xD
 
Enfrentando al demonio c:

INTRO                                     
e|---6--6---5---5--------6--6---5---55------|
B|-----6-6-6-----6---------6-6-6-------6----| 
G|------------------------------------------|
D|------------------------------------------|
A|------------------------------------------|
E|------------------------------------------|

    Bb                 F
e|----------------------5-----|
B|--3--3-4-6-----3-4-6--------| 
G|-----------7----------------|
D|----------------------------|
A|----------------------------|
E|----------------------------|

e|--5-6-5-x3--------        ----5-----|
B|-----6------------ X3     -----6----| 
G|------------------        ----------|
D|------------------------------------|
A|------------------------------------|
E|------------------------------------|

Verso 1
Bb                             F
Yo creo en el bien, creo en el mal 
Bb                            F
Yo creo en tratar, creo en errar 

Am       Bb            C            Dm 
 Todo es    tan simple    antes de ser complicado 
Am       Bb         C          F 
 Nada es    ni será    para siempre 

Bb                            F
No puedo evitar que haya un final 
Bb                            F
No puedo esconder lo que es real 

      Dm                                C
e|-------------------------------------------------------|
B|-------------------------------------------------------|
G|-------------------------------------------------------|
D|-12-13-14-15-15-15--------10-11-12-14-14-14------------| x2
A|-------------------------------------------------------|
E|-------------------------------------------------------|

CORO (arpegio en cada nota de la 1ra a la 3ra cuerda)

          Dm             C               Bb            F F C F F C
Y sin sonreír, debo entender que no cambiará, no volverás 
Dm               C             Bb              F F C F F C F F C Dm
    Y en conclusión la vida no es más que esperar
                     Dm  C
Que hay algo más 

Verso 2
Bb                     F 
Tu cara ya no es familiar 
Bb                       F 
Tu voz ya no puedo recordar 
Gm                      Dm
Cuando fue que yo te olvide 
Gm                        F
Donde te perdí nunca te hallé 

Am       Bb            C            Dm 
 Todo es    tan simple    antes de ser complicado 
Am       Bb         C          F 
 Nada es    ni será    para siempre 

      Dm                                C
e|-------------------------------------------------------|
B|-------------------------------------------------------|
G|-------------------------------------------------------|
D|-12-13-14-15-15-15--------10-11-12-14-14-14------------| x2
A|-------------------------------------------------------|
E|-------------------------------------------------------|

CORO (arpegio en cada nota de la 1ra a la 3ra cuerda)

          Dm             C               Bb            F F C F F C
Y sin sonreír, debo entender que no cambiará, no volverás 
Dm               C             Bb              F F C F F C F F C Dm
    Y en conclusión la vida no es más que esperar
                     Dm  C
Que hay algo más 


Solo
   Bb      A    Dm     C    Bb              A         Dm      C        Bb 
e|-------------------------------------------------------------------------|
B|---------------------------------------------------16b---18-18b---20-20b-|
G|--------------18b---16b---15b---15 17--15-14----14-----------------------|
D|-12b-12s19b-19---19-----19-----------------------------------------------|
A|-------------------------------------------------------------------------|
E|-------------------------------------------------------------------------|
            A       Dm  A 
e|------------------------------|
B|-20b-20b-17--17-17b-16b-15s3--|
G|------------------------------|
D|------------------------------|
A|------------------------------|
E|------------------------------|


   Dm                 C
e|----------------------------------|
B|----------------------------------|
G|-7-8-9-10-10-10----5-6-7-9-9-9----|  2x
D|----------------------------------|
A|----------------------------------|
E|----------------------------------|

    Dm                             C
e|---------------------------------------------------------------|
B|---------------------------------------------------------------|
G|-7-8-9-10-10-10---7-8-9-10-10-10---5-6-7-9-9-9----5-6-7-9-9-9--| 
D|---------------------------------------------------------------|
A|---------------------------------------------------------------|
E|---------------------------------------------------------------|
   Hay            tantas           cosas         que         

    Dm                             C
e|---------------------------------------------------------------|
B|---------------------------------------------------------------|
G|-7-8-9-10-10-10---7-8-9-10-10-10---5-6-7-9-9-9----5-6-7-9-9-9--| 
D|---------------------------------------------------------------|
A|---------------------------------------------------------------|
E|---------------------------------------------------------------|
   quisiera        escribirte      aquí 

Dm          C     Bb        C 
   Si tan solo  supera que decir 
Dm               C             Bb              F F C F F C F F C Dm
    Y en conclusión la vida no es más que esperar
                     Dm  C   F
Que hay algo más 

Dudas:  ralph_1006@hotmail.com (ralph eric ugaz ascoy)

Neko1029owo
@ralphnades

saludos!!

smileeeeee!!
Добавлено: 15.08.2015
Другие материалы по этой песне:
  • Аккорды и текст

Страница создана 15.08.2015
http://primanota.ru/lasso/algo-mas-chords.htm
Привет, Гость.
Предлагаем пройти революционный курс по гитаре.
Подарок от PrimaNota.Ru, забирай!