PrimaNota.ru - самый крупный в мире бесплатный архив песенных текстов, аккордов, табулатур и нот


Las Ultrasnicas - Ramona - таба

Регистрация Запомнить меня
Войти через:  Facebook Google Twitter Vk Yandex Mail.ru

Las Ultrasnicas - Ramona - таба

Печатать
Просмотров: 71
Riff 1

e -----------------------------
B -----------------------------
G -----------------------------
D -2222225-2222225-2222225-755-
A -0000003-0000003-0000003-533-
E -----------------------------

Riff 2

e -----------------------
B -----------------------
G -----------------------
D -22522522---22522522---
A -0030030055-0030030055-
E ---------33---------33-

Riff 3

e ----------------------------
B ----------------------------
G ----------------------------
D -2222225-2222225-225225-755-
A -0000003-0000003-003003-533-
E ----------------------------

Riff 4

e -----------
B -----------
G -----------
D -2-7-5-2---
A -0-5-3-0-5-
E ---------3-

Riff 5

E ---
B ---
G ---
D -2-
A -0-
E ---

Riff 1
Riff 2
Riff 3
Riff 1 x2
Riff 4 x3
Riff 5
Riff 1
Riff 2
Riff 3
Riff 1 x2
Riff 4 x4
Riff 2
Riff 4 x3
Riff 5
Добавлено: 01.04.2016
Вам также может быть интересно:
Другие материалы по этой песне:
  • Аккорды и текст

Страница создана 01.04.2016
http://primanota.ru/las-ultrasnicas/ramona-chords.htm
Привет, Гость.
Предлагаем пройти революционный курс по гитаре.
Подарок от PrimaNota.Ru, забирай!