PrimaNota.ru - самый крупный в мире бесплатный архив песенных текстов, аккордов, табулатур и нот


Las Personas - Jarcor - бас-таба, видео

Регистрация Запомнить меня
Войти через:  Facebook Google Twitter Vk Yandex Mail.ru

Las Personas - Jarcor - бас-таба, видео

Печатать
Просмотров: 65
Tablatura echa por: FruitshopOwner
Si esta mal es porque la saque de oido :P



Somos las personas...
-------------------------------|
-------------------------------|
-2~----5~----------------------|
------------3~--5~---320-------|

Las personas JARCOR Tu abuelita JARCOR...  (INTRO)
--------------------------------------------------------------------------|
--------------------------------------------------------------------------|
2-2-22-2-22-22-----5-5--5---5---------------------------------------------| x2 (
--------------------------3---3--3-3-33-3-33-33--5-5-55-5-55-55-----------|
Antes era un pobre tonto...
--------------------------------------------------------------------------|
--------------------------------------------------------------------------|
2222222222222222--5555555555555555----------------------------------------|
------------------------------------3333333333333333--5555555555555555----|

--------------------------------------------------------------------------|
--------------------------------------------------------------------------|
2-22-22-2-2-2---5-55-55---5-----------------------------------------------|
------------------------3---3--3-33-33-3-3-3---5323-----------------------|
Este nuevo estilo que traigo es para ti...
--------------------------------------------------------------------------|
---44----55---------------------44----55----------------------------------|
22----55--------55----55-----22----55-------55----44----------------------| x2
-------------33----55--------------------33----55-------------------------|
 Vamos a la calle porque somos...
--------------------------------------------------------------------------|
--------------------------------------------------------------------------|
2222--5555----------------------------------------------------------------| x9
------------3333--5555----------------------------------------------------|

--------------------------------------------------------------------------|
---44----55-------------------44----55------------------------------------|
22----55-------55----55----22----55------2~-------------------------------|
------------33----55------------------------------------------------------|
El mundo no entiende que me gusta el jarcor...
--------------------------------------------------------------------------|
--------------------------------------------------------------------------|
2222--2222~(x5)-----3333--3333~---2222--2222~--3333--3333~----------------|
--------------------------------------------------------------------------|
Solo:
--------------------------------------------------------------------------|
--------------------------------------------------------------------------|
2-22-22----5-55-55-----------5------2-22-22----5-55-55--------------------| x6
---------------------3-33-33---333-----------------------3-33-33--55------|

Ahuevo Metallica Master of puppets...


(esta parte no se si esta bien :S)
--------------------------------------------------------------------------|
--------------------------------------------------------------------------|
-----------------------------------5----5---------------------------------|
01310131-234234---575320-575320---3-3--3-3-0~-----------------------------|
Добавлено: 11.12.2013
Другие материалы по этой песне:
  • Аккорды и текст

Страница создана 11.12.2013
http://primanota.ru/las-personas/jarcor-chords.htm
Привет, Гость.
Предлагаем пройти революционный курс по гитаре.
Подарок от PrimaNota.Ru, забирай!