PrimaNota.ru - самый крупный в мире бесплатный архив песенных текстов, аккордов, табулатур и нот


Larva - Anfibio - таба, видео

Регистрация Запомнить меня
Войти через:  Facebook Google Twitter Vk Yandex Mail.ru

Larva - Anfibio - таба, видео

Печатать
Просмотров: 30
Larva - Anfibio Guitar tab

Interprete: Larva
Disco: Anormal
Afinacion: Dropped C

Tablatura Subida por Agustín Panda para todos los Fans de Peech X_X jijiji
Saludos a toda la Banda Cualquier duda o comentario pueden Mandarme un correo a 
maldito_oso_panda@hotmail.com Visiten el Facebook de la banda www.facebook.com/larva.oficial


G1
|---------------------|-----------------------------|
|---------------------|-----------------------------|
|---------------------|-----------------------------|
|---------------------|-----------------------------|
|----9---10--12--10---|-9-10-12-12---12-12-12--11---|
|----9---9---0---0----|-9-9--0----------------------|

G1
|------------------------|
|------------------------|
|------------------------|
|------------------------|
|---12---10--9----5------|
|---0----0---0----0------|

G1
|---------------------|-----------------------------|
|---------------------|-----------------------------|
|---------------------|-----------------------------|
|---------------------|-----------------------------|
|----9---10--12--10---|-9-10-12-12---12-12-12--11---|
|----9---9---0---0----|-9-9--0----------------------|
G1
|--------------------|-------------------|
|--------------------|-------------------|
|--------------------|-------------------|
|--------------------|-------------------|
|---12---10--9----5--|--12-10-99999999---|
|---0----0---0----0--|--0--0--00000000---|

G1
|-----11--------X--------|----11---9----9----9---9---9---9-----|
|-----9---------8--------|----9----9----9----9---9---9---9-----|
|-----9---------7--------|----9----9----9----9---12--9---9-----|
|-----9---------0--------|----9----11---12---11--9---12--11----|
|-----9---------0--------|----9----9----9----9---9---9---9-----|
|-----9---------0--------|----9----9----9----9---9---9---9-----|

G1
|----11----7----4----6----|
|----9-----5----2----4----|
|----9-----5----2----4----|
|----9-----5----2----4----|
|----9-----5----2----4----|
|----9-----5----2----4----|

G1
|-----11--------X--------|
|-----9---------8--------|
|-----9---------7--------|
|-----9---------0--------|
|-----9---------0--------|
|-----9---------0--------|

G1
|--------------------|------------------------|-------|
|--------------------|------------------------|-------|
|--------------------|------------------------|-------|
|--------------------|------------------------|-----0-|
|---12---10--9----5--|--10-9-10-9--10-9--10-9-|---9---|
|---0----0---0----0--|--0--0-0--0--0--0--0-0--|-0-----|

Добавлено: 21.06.2016
Другие материалы по этой песне:
  • Аккорды и текст

Страница создана 21.06.2016
http://primanota.ru/larva/anfibio-chords.htm
Привет, Гость.
Предлагаем пройти революционный курс по гитаре.
Подарок от PrimaNota.Ru, забирай!