PrimaNota.ru - самый крупный в мире бесплатный архив песенных текстов, аккордов, табулатур и нот


Lars Winnerback - Otursdag - аккорды и текст, видео

Регистрация Запомнить меня
Войти через:  Facebook Google Twitter Vk Yandex Mail.ru

Lars Winnerback - Otursdag - аккорды и текст, видео

Печатать
Просмотров: 122
Otursdag
Lars Winnerback
Artist/Band: Lars Winnerbäck
Kompositör: (Okänd)
Album: (Osläppt) Inspelad cirka 1992
Tabbad av: Zacharias Lindberg

Ackord

C - x32010
Em - 022000
F - 133211
G - 320033
Am - x02210

* = Kort paus

Intro/Mellanspel

   C       Em      F       G       C       Em      F       C
E|------------------------------------------------------------|
B|---1-------0-------1-------3-------1-------0-------1--------|
G|-------0-------0-------2-------0-------0-------0-------2----|
D|-----2-------2-------3-------0-------2-------2-------3------|
A|-3-------------------------------3-----------------------3-*| 
E|---------0-------1-------3---------------0-------1----------| 

Verser

   C       Em      F       G       C       Em      F       C
E|-----------------------------------------------------------------|
B|---1-------0-------1-------3-------1-------0-------1-------1-----|
G|-------0-------0-------2-------0-----0---------0-------2-------0-|
D|-----2-------2-------3-------0---------2-----2-------3-------2---|
A|-3-------------------------------3-----------------------3-------|
E|---------0-------1-------3---------------0-------1---------------|

   Am      F       G       C               F       G       C
E|--------------------------------------------------------------------|
B|---1-------1-------3-------1-------1-------1-------3-------1--------|
G|-------2-------2-------0-------0-------0-------2-------0-------1----|
D|-----2-------3-------0-------2-------2-------3-------0-------2------|
A|-0-----------------------3-------3-----------------------3-------3*-|
E|---------1-------3-----------------------1-------3------------------|

   C       Em      F       G       C       Em      F       C
E|-----------------------------------------------------------------|
B|---1-------0-------1-------3-------1-------0-------1-------1-----|
G|-------0-------0-------2-------0-----0---------0-------2-------0-|
D|-----2-------2-------3-------0---------2-----2-------3-------2---|
A|-3-------------------------------3-----------------------3-------|
E|---------0-------1-------3---------------0-------1---------------|

   Am      F       G       C               F       G       C
E|-----------------------------------------------------------------|
B|---1-------1-------3-------1-------1-------1-------3-------1-----|
G|-------2-------2-------0-------0-------0-------2-------0-------0-|
D|-----2-------3-------0-------2-------2-------3-------0-------2---|
A|-0-----------------------3-------3-----------------------3-------|
E|---------1-------3-----------------------1-------3---------------|

Refräng 1

   F       G       Em      Am      F       G       Em      Am 
E|-----------------------------------------------------------------|
B|---1-------3-------0-------1-------1-------3-------0-------1-----|
G|-------2-------0-------0-------2-------2-------0-------0-------2-|
D|-----3-------0-------2-------2-------3-------0-------2-------2---|
A|-------------------------0-------------------------------0-------|
E|-1-------3-------0---------------1-------3-------0---------------|

   F       G       Em      Am      F       G       C
E|------------------------------------------------------------|
B|---1-------3-------0-------1-------1-------3-------1--------|
G|-------2-------0-------0-------2-------2-------0-------0----|
D|-----3-------0-------2-------2-------3-------0-------2------|
A|-------------------------0-----------------------3-------3-*|
E|-1-------3-------0---------------1-------3------------------|

Refräng 2/Outro

   F       G       Em      Am      F       G       Em      Am 
E|-----------------------------------------------------------------|
B|---1-------3-------0-------1-------1-------3-------0-------1-----|
G|-------2-------0-------0-------2-------2-------0-------0-------2-|
D|-----3-------0-------2-------2-------3-------0-------2-------2---|
A|-------------------------0-------------------------------0-------|
E|-1-------3-------0---------------1-------3-------0---------------|

   F       G       Em      Am      F       G       C
E|-----------------------------------------------------------|
B|---1-------3-------0-------1-------1-------3-------1-------|
G|-------2-------0-------0-------2-------2-------0-------0---|
D|-----3-------0-------2-------2-------3-------0-------2-----|
A|-------------------------0-----------------------3-------3-|
E|-1-------3-------0---------------1-------3-----------------|


Intro: C Em F G C Em F C*

C            Em           F              G
Sitter här så ensam mina vänner har gått ut
      C            Em         F              C
En sträng har gått av, mitt snus har tagit slut
Am        F         G         C
Ölen är ljummen och TV'n har dött
                F               G              C*
Tänkte ta en patiens men jag är alldeles för trött

C                     Em            F          G
Så jag kryper fram till stereon och trycker på play
  C              Em       F                 C
Det låter lite konstigt när bandet trasslar sig
 Am              F         G           C
Så jag sätter mig i soffan för att koppla av
                    F           G              C
Men jag hoppar upp igen för en fjäder har gått av

     F               G       Em        Am
Ja, jag har aldrig skådat en värre otursdag
     F             G         Em             Am
Jag längtar till imorrn då är allting säkert bra
          F             G             Em            Am
Men batterit till min klocka har jag glömt att byta ut
          F          G           C*
Så denna dag lär nog aldrig ta slut

Mellanspel: C Em F G C Em F C*

 C           Em            F            G
Tar en kopp kaffe för det brukar pigga upp
  C        Em              F             C
Tänder ett ljus då brinner köksgardinen upp
  Am              F          G           C
Jag ramlar ner på golvet och slår huvet i en dörr
                   F           G                 C*
När jag vaknar upp igen är det ljust som aldrig förr

C                 Em            F         G
Hela köket står i lågor och kan ni tänka er
  C          Em      F             C
Hur jag än stampar  blir lågorna bara fler
    Am               F          G               C
Jag tänker "Detta måste larmas till brandkårn inom kort"
               F            G          C
Jag går mot telefonen och ser den smälta bort

     F               G       Em        Am
Ja, jag har aldrig skådat en värre otursdag
     F             G         Em             Am
Jag längtar till imorrn då är allting säkert bra
          F             G             Em            Am
Men batterit till min klocka har jag glömt att byta ut
          F          G           C
Så denna dag lär nog aldrig ta slut
Добавлено: 06.02.2014
Другие материалы по этой песне:
  • Аккорды и текст

Страница создана 30.10.2013
http://primanota.ru/lars-winnerback/otursdag-chords.htm
Привет, Гость.
Предлагаем пройти революционный курс по гитаре.
Подарок от PrimaNota.Ru, забирай!