PrimaNota.ru - самый крупный в мире бесплатный архив песенных текстов, аккордов, табулатур и нот


Lars Winnerback - Bertta Hur Du Gr - таба

Регистрация Запомнить меня
Войти через:  Facebook Google Twitter Vk Yandex Mail.ru

Lars Winnerback - Bertta Hur Du Gr - таба

Печатать
Просмотров: 113
capo: 1frt

Försökte så gott jag kunde, låter kanske inte helt rätt men ni får själva komma på 
i så fall



e -----------------|
b -----------------|
g -----------------|
d --0--------------| x12   (OBS! spelas bara x12 i början, sen när han har
a --2-2------------|         börjat sjunga blir det x8)
e --3--------------|
  Berätta hur du gör..

e -------------------------------------------------------------------|
b -------------------------------------------------------------------|
g -------------------------------------------------------------------|
d -----2-----2-----2-----2-----0-----0-----0-----0-----0-------------|
a --0--2--2--2--2--2--2--2--0--3--3--3--3--3--3--3--0--2--2----------|
e -----0-----0-----0-----0-----0-----0-----0-----0-----3-------------|
                                       ..berätta hur du gör..

.....det är en känsla som du lämnar
när du vänder bort din blick
berätta hur du gör

berätta vad det är
det där linjen i din hand
berätta vad det är så jag förstår
hur jag ska nå dig
berätta vad det är

det finns dom som åkt till månen
miljarder år av sten
och jag har hört hur det berättas
om en säkerhet trots alls
en känsla som är ren

berätta hur du gör
berätta hur du gör
och jag ska utstå allt
den ensamhet som följer när du går
om du berättar hur du gör

två saker har du glömt här
två saker vad jag minns
en blå, blå sjal
med svarta fransar
och nåt mer som inte syns

det finns dom som stannar tiden
det är inte bara attityd
jag har gett mig av men hjärtat
börjar svalna redan innan
jag passerat Sthlm syd

berätta hur du gör ...
Добавлено: 27.02.2012
Другие материалы по этой песне:
  • Аккорды и текст

Страница создана 27.02.2012
http://primanota.ru/lars-winnerback/bertta-hur-du-gr-chords.htm
Привет, Гость.
Предлагаем пройти революционный курс по гитаре.
Подарок от PrimaNota.Ru, забирай!