PrimaNota.ru - самый крупный в мире бесплатный архив песенных текстов, аккордов, табулатур и нот


Lars Frederiksen & The Bastards - Marie Marie - текст песни, таба, видео

Регистрация Запомнить меня
Войти через:  Facebook Google Twitter Vk Yandex Mail.ru

Lars Frederiksen & The Bastards - Marie Marie - текст песни, таба, видео

Печатать
Просмотров: 113
Marie marie
Lars Frederiksen and the Bastards
Viking

Intro-i know this is a weird chord but trust me. strum it 8 times alternately
E-0-----------------------------------------------------------|
B-6-----------------------------------------------------------|
G-5-----------------------------------------------------------|
D-4-----------------------------------------------------------|
A-5-----------------------------------------------------------|
E-0-----------------------------------------------------------|
Verse-rockabilly style hammerons (guitar 1)
E------------------------------------------------------------|
B------------------------------------------------------------|
G----------7-9-7----5-7-5----7-9-7---------------------------|
D-5-7-5----7-9-7-x5-5-7-5-x2-7-9-7-x2--5-7-5----repeat-------|
A-5-7-5-x5-5-5-5----3-3-3----5-5-5-----5-7-5-x5--------------|
E-3-3-3--------------------------------3-3-3-----------------|
Verse-for 2nd guitar-(its the same chords but with a palm muting pattern)
E---------------------------------------------------------------|
B---------------------------------------------------------------|
G----------7-7-7----5-5-5----7-7-7------------------------------|
D-5-5-5----7-7-7-x4-5-5-5-x2-7-7-7-x2--repeat-2x----------------|
A-5-5-5-x4-5-5-5----3-3-3----5-5-5------------------------------|
E-3-3-3---------------------------------------------------------|
  x x      x x      x x      x x
Chorus-just play this chord over and over again
E--------------------------------------------------------------|
B--------------------------------------------------------------|
G-7------------------------------------------------------------|
D-7------------------------------------------------------------|
A-5------------------------------------------------------------|
E--------------------------------------------------------------|

after the chorus play the verse one time
Solo #1
E-33---33---33----3----3----3-66666-33-3/10---------10-1010---------10-|
B-33---33---33-x2-3----3----3-55555-33-3/10---------10-1010---------10-|
G----5b---5b--------3h5--3h5----------------12-10h12--------12-10h12---|
D----------------------------------------------------------------------|
A----------------------------------------------------------------------|
E----------------------------------------------------------------------|
solo(cont.)
E-8-1111-8-10-12-12-10-333-6-666-3---------------------------|
B-8-1010-8-10-11-11-10-333-5-555-3---------------------------|
G------------------------------------------------------------|
D------------------------------------------------------------|
A------------------------------------------------------------|
E------------------------------------------------------------|

play verse again

play chorus again

at 1:30 play the main chords that are used in the verse, play them just normal
Solo #2
E-33---33----3--4--5--6--7--8---10---------13131313-88---------1010-131313-333-666-3-|
B-33---33-x5-3--4--5--6--7--8---10---------12121212-88---------1010-121212-333-555-3-|
G----5b------5b-6b-7b-8b-9b-10b----12-10h12------------10-8h10-----------------------|
D------------------------------------------------------------------------------------|
A------------------------------------------------------------------------------------|
E------------------------------------------------------------------------------------|

thats it ENJOY!

good luck with this, listen to the song over and over again to get down the rythem in those solos
Добавлено: 08.11.2013
Другие материалы по этой песне:
  • Аккорды и текст

Страница создана 30.07.2012
http://primanota.ru/lars-frederiksen-and-the-bastards/marie-marie-chords.htm
Привет, Гость.
Предлагаем пройти революционный курс по гитаре.
Подарок от PrimaNota.Ru, забирай!