PrimaNota.ru - самый крупный в мире бесплатный архив песенных текстов, аккордов, табулатур и нот


Lars Frederiksen & The Bastards - For You - текст песни, таба, бас-таба, видео

Регистрация Запомнить меня
Войти через:  Facebook Google Twitter Vk Yandex Mail.ru

Lars Frederiksen & The Bastards - For You - текст песни, таба, бас-таба, видео

Печатать
Просмотров: 91
its very easy i was dissapointed it isnt here , so here it is now :D
verse
e|----------------------|
B|----------------------|
G|-------2-2--4-4--2-2--|
D|--2-2--2-2--4-4--2-2--|
A|--2-2--0-0--2-2--0-0--|
E|--0-0-----------------|
chorus
e|-------------------------------------------------------------------------|
B|-------------------------------------------------------------------------|
G|-------------------------------------------------------------------------|
D|--9-11-9--9-11-9--9-11-9--9-11-9-----------------------------------------|
A|--7-7 -7--7-7 -7--7-7 -7--7-7 -7--9-11-9--9-11-9--9-11-9--9-11-9---------|
E|----------------------------------7-7 -7--7-7 -7--7-7 -7--7-7 -7---------|

-----------------------------------------------------------------|
-----------------------------------------------------------------|
-----------------------------------------------------------------|
----7-9-7--7-9-7--7-9-7--7-9-7-----------------------------------|
----5-5-5--5-5-5--5-5-5--5-5-5----7-9-7--7-9-7--7-9-7--7-9-7-----|
----------------------------------5-5-5--5-5-5--5-5-5--5-5-5-----|

thats it :D
only hard thing is the rock n roll riffing in chorus :D
Добавлено: 03.06.2013
Другие материалы по этой песне:
  • Аккорды и текст

Страница создана 13.06.2012
http://primanota.ru/lars-frederiksen-and-the-bastards/for-you-chords.htm
Привет, Гость.
Предлагаем пройти революционный курс по гитаре.
Подарок от PrimaNota.Ru, забирай!