PrimaNota.ru - самый крупный в мире бесплатный архив песенных текстов, аккордов, табулатур и нот


Larry Loo - Last Man On Earth - бас-таба, видео

Регистрация Запомнить меня
Войти через:  Facebook Google Twitter Vk Yandex Mail.ru

Larry Loo - Last Man On Earth - бас-таба, видео

Печатать
Просмотров: 78
Уроки эстрадного вокала в Санкт-Петербурге
-------------------------------------------------------------------------------
                       Last Man on Earth - Larry Loo 
-------------------------------------------------------------------------------
Tabbed by: Alex and Dennis 
E-mail: 

Tuning: Standard

INTRO:
G|---------------------------------------------------------------------------|
D|---------------------------------------------------------------------------|
A|--0-0-0-0-------------0-0-0-0----------3-2---------------------------------|
E|------------1-1-1-1-------------1-1-1--------------------------------------|

STROPHE:
G|---------------------------------------------------------------------------|
D|---------------------------------------------------------------------------|
A|--0-0-0-0------------------------------------------------------------------|
E|------------1-1-1-1---2-2-2-2---1-1-1-1------------------------------------|

BRIDGE:
G|---------------------------------------------------------------------------|
D|---------------------------------------------------------------------------|
A|---3-3-3-3-3-3-3-3---2-2-2-2-2---------------------------------------------|
E|---------------------------------------------------------------------------|

REFRAIN:
G|---------------------------------------------------------------------------|
D|---3-33-3---2-22-2---------------------------------------------------------|
A|---------------------0-00-0---1-11-1---------------------------------------|
E|---------------------------------------------------------------------------|

OUTRO:
G|---------------------------------------------------------------------------|
D|---------------------------------------------------------------------------|
A|---3-3-3-3---2-2-2-2---0-0-0-0-----------------------------------0---------|
E|---------------------------------1-1-1-1-----------------------------------|

INTRO: x3

STROPHE: x4

BRIDGE: x1

REFRAIN: x4

STROPHE: x4

BRIDGE: x1

REFRAIN: x4

OUTRO: voraussichtlich x4
===============================================================================
Добавлено: 12.12.2015
Другие материалы по этой песне:
  • Аккорды и текст

Страница создана 12.12.2015
http://primanota.ru/larry-loo/last-man-on-earth-chords.htm
Привет, Гость.
Предлагаем пройти революционный курс по гитаре.
Подарок от PrimaNota.Ru, забирай!