PrimaNota.ru - самый крупный в мире бесплатный архив песенных текстов, аккордов, табулатур и нот


Larry Graham - Phantom Of The Opera - бас-таба, видео

Регистрация Запомнить меня
Войти через:  Facebook Google Twitter Vk Yandex Mail.ru

Larry Graham - Phantom Of The Opera - бас-таба, видео

Печатать
Просмотров: 182
To find this video go to www.youtube.com and search "Crazy Bass Sound"- it's the first 
on the list.

STANDARD TUNING: G-D-A-E


|-----------------------------------------------------------------------------|
|----------------------5---4------------------5---4-------------------5---4---|
|-3-2------7-10-9\---3---2--------7-10-9\---3---2-------10/14-12\---3---2-----|
|-----0-----------------------0---------------------0-------------------------|

---------------|
---------------|
-----7-10-9\-x-|
-0-------------|

|---------------------------------------|
|---------------------------------------|
|---7---5---3-3~----------5-------------|     X 2
|-7---7----------7-6-5--5---5h7-7~~~~~~-|

|-------4--22~---2-7-22h4~-|
|---2-5--------------------|
|-2------------------------|
|--------------------------|

|--4-9~~-75420-----------------|
|-------------42---------------|
|---------------6~---3-3--2----|
|----------------------------0-|

|---------------------------------------------------------------------|
|--------------5---4------------------5---4-------------------5---4---|
|--7-10-9\---3---2--------7-10-9\---3---2-------10/14-12\---3---2-----|
|---------------------0---------------------0-------------------------|

---------------------------------|
-----------------5-----4---------|
-----7-10-9\---3----2------------|
-0-------------------------0~~~--|


Sorry about timing but it's too much hassle to type it all out

Thanks for reading and please rate!!!
Добавлено: 22.05.2012
Другие материалы по этой песне:
  • Аккорды и текст

Страница создана 22.05.2012
http://primanota.ru/larry-graham/phantom-of-the-opera-chords.htm
Привет, Гость.
Предлагаем пройти революционный курс по гитаре.
Подарок от PrimaNota.Ru, забирай!