PrimaNota.ru - самый крупный в мире бесплатный архив песенных текстов, аккордов, табулатур и нот


Larry Graham - Hair - бас-таба, видео

Регистрация Запомнить меня
Войти через:  Facebook Google Twitter Vk Yandex Mail.ru

Larry Graham - Hair - бас-таба, видео

Печатать
Просмотров: 291
Уроки эстрадного вокала в Санкт-Петербурге
Hair By larry Graham

Bass Tab

I got this mainly from listening and watching others play it, i first tabbed it on a
tuned bass so i had to retab it for normal bass, so a few notes might be slightly off.
are gonna say i missed notes or whatever but this is just an outline of it, listen to 
song before you learn it. Its Just the main riff but thats basically how the song goes for
of it.

G---------------------------------5/7------------------9p7---9-|
D----------------5-7----------5/7---------5-7------------------|
A-5h7-----------------------5----------------------55----------|
E-----0-0--000------xxxxx---------0-00----xxxx--------x--------|

G------------------------5/7------------------9p7---9/12----------|
D-------5-7----------5/7----------5-7-----------------------------|
A-------------------5------------------------5--------------------|
E-0-000----xxxxx----------0-00-----xxxx-------x-------------------|
Добавлено: 28.03.2012
Другие материалы по этой песне:
  • Аккорды и текст

Страница создана 28.03.2012
http://primanota.ru/larry-graham/hair-chords.htm
Привет, Гость.
Предлагаем пройти революционный курс по гитаре.
Подарок от PrimaNota.Ru, забирай!