PrimaNota.ru - самый крупный в мире бесплатный архив песенных текстов, аккордов, табулатур и нот


Larkhill - Punk Song - таба, видео

Регистрация Запомнить меня
Войти через:  Facebook Google Twitter Vk Yandex Mail.ru

Larkhill - Punk Song - таба, видео

Печатать
Просмотров: 74
Punk Song
Tuning: standerd
guitar intro

   A                                           (scratching)
e|--------------------------------------------------------|
B|--------------------------------------------------------|
G|-----------------------13-13b14b13----------------------|
D|--14-14-14-14-14-12-14-------------14-12-14-------------|
A|--12-12-12-12-12-12-12----------------------------------|
E|--------------------------------------------------------|


   B
e|---------------------------------------------0-|
B|-----------------------------------------x8--0-|
G|-7-8-99999-----(repeat-A)-------7-8-9999-----0-|
D|-7-8-99999----------------------7-8-9999-----0-|
A|-5-6-77777----------------------5-6-7777-----0-|
E|---------------------------------------------0-|
Добавлено: 29.07.2015
Другие материалы по этой песне:
  • Аккорды и текст

Страница создана 29.07.2015
http://primanota.ru/larkhill/punk-song-chords.htm
Привет, Гость.
Предлагаем пройти революционный курс по гитаре.
Подарок от PrimaNota.Ru, забирай!