PrimaNota.ru - самый крупный в мире бесплатный архив песенных текстов, аккордов, табулатур и нот


L'arc En Ciel - Route 666 - текст песни, бас-таба, видео

Регистрация Запомнить меня
Войти через:  Facebook Google Twitter Vk Yandex Mail.ru

L'arc En Ciel - Route 666 - текст песни, бас-таба, видео

Печатать
Просмотров: 116
Авторы музыки: hyde
Авторы текста: hyde
                             

     W                   W                   W                 
G||-------------------|-------------------|-------------------|
D||-------------------|-------------------|-------------------|
A||-------------------|-------------------|-------------------|
E||-------------------|-------------------|-------------------|


  W                   W                   W                   W                 
-------------------|-------------------|-------------------|-------------------|
-------------------|-------------------|-------------------|-------------------|
-------------------|-------------------|-------------------|-------------------|
-------------------|-------------------|-------------------|-------------------|


  E  E  E  E  E  E  Q       E  E  E  E  E  E  E  E     E  E  E  E  E  E  E  E   
-------------------------|--------------------------|--------------------------|
-------------------------|--------------------------|--------------------------|
-------------------------|--------------------------|--------------------------|
--x--x--x--x--x--x--x----|--0--0--0--6--L--6--6--5--|--L--5--5--3--L--3--5--3--|


  E  E  E  E  E  E  E  E     E  E  E  E  E  E  Q       E  E  E  E  E  E  E  E   
--------------------------|-------------------------|--------------------------|
--------------------------|-------------------------|--------------------------|
--------------------------|-------------------------|--------------------------|
--0--0--0--6--L--6--6--5--|--L--5--5--3--L--5--3----|--0--0--0--6--L--6--6--5--|


  E  E  E  E  E  E  Q       E  E  E  E  E  E  E  E     E  E  E  E  E  E  Q     
-------------------------|--------------------------|-------------------------|
-------------------------|--------------------------|-------------------------|
-------------------------|--------------------------|-------------------------|
--L--5--5--3--L--5--3----|--0--0--0--6--L--6--6--5--|--L--5--5--3--L--5--3----|


  Q    E  E  E  E  E  E     E  E  E  E  E  E  E  E     Q    E  E  E  E  E  E   
-------------------------|--------------------------|-------------------------|
-------------------------|--------------------------|-------------------------|
-------------------------|--------------------------|-------------------------|
--0----x--------x--x-----|-----x--x--------0--3--2--|--0----x--------x--x-----|


  E  E  E  E  E  E  Q       E  E  E  E  E  E  E  E     E  E  E  E  E  E  Q     
-------------------------|--------------------------|-------------------------|
-------------------------|--------------------------|-------------------------|
-------------------------|--------------------------|-------------------------|
-----x--x--------0--3----|--0--0--0--6--6--6--6--5--|--L--5--5--3--3--5--3----|


  E  E  E  E  E  E  E  E     E  E  E  E  E  E  Q       Q    E  E  E  E  E  E   
--------------------------|-------------------------|-------------------------|
--------------------------|-------------------------|-------------------------|
--------------------------|-------------------------|--0----------------------|
--0--0--0--6--L--6--6--5--|--L--5--5--3--L--5--3----|--0----x--------x--x-----|


  E  E  E  E  E  E  E  E     Q    E  E  E  E  E  E     E  E  E  E  E  E  Q     
--------------------------|-------------------------|-------------------------|
--------------------------|-------------------------|-------------------------|
-----------------0--------|-------------------------|-----------------0-------|
-----x--x-----x--0--3--2--|--0----x--------x--x-----|-----x--x-----x--0--3----|


  E  E  E  E  E  E  E  E     E  E  E  E  E  E  Q       E  E  E  E  E  E  E  E   
--------------------------|-------------------------|--------------------------|
--------------------------|-------------------------|--------------------------|
--------------------------|-------------------------|--------------------------|
--0--0--0--6--6--6--6--5--|--L--5--5--3--3--5--3----|--0--0--0--6--L--6--6--5--|


  E  E  E  E  Q    Q       Q    Q    E  E  E  E     E   E  E  E   E  E  Q     
------------------------|------------------------|---------------------------|
------------------------|------------------------|---------------------------|
------------------------|--2----2----2--2--2--2--|--0h--2--2--0h--2--2--2----|
--L--5--5--3--3----x----|------------------------|---------------------------|


  E   E  E  E  E  E  E  E     E   E  E  E   E  E  Q     
---------------------------|---------------------------|
---------------------------|---------------------------|
--2h--3--3--3--L--3--3--3--|--2h--3--3--2h--3--3--3----|
---------------------------|---------------------------|


  E  E  Q    E  E  E  E     E   E  E  E   E  E  Q       Q    E  E  E  E  Q     
-------------------------|---------------------------|------------------------|
-------------5-----------|---------------------------|-------------------7----|
--3--5--5-------5--5--5--|--3h--5--5--3h--5--5-------|--0----0--7--L--7-------|
-------------------------|----------------------x----|------------------------|


  E   E  E  E   E  E  Q       Q    Q    E  E  E  E   
---------------------------|------------------------|
--7p--5-----7p--5-----7----|------------------------|
---------7---------7-------|--2----2----2--2--2--2--|
---------------------------|------------------------|


  E   E  E  E   E  E  Q       E   E  Q    E  E  E  E   
---------------------------|--------------------------|
---------------------------|--------------------------|
--0h--2--2--0h--2--2--2----|--2h--3--3----L--3--3--3--|
---------------------------|--------------------------|


  E   E  E  E  Q    Q       Q    E.  S E  E  Q       Q    Q    Q    Q     
-------------------------|------------------------|----------------------|
-------------------------|-------------------5----|--L----3----L---------|
--2h--3--3--3--L----x----|-----------3-L--3-------|-----------------x----|
-------------------------|--1----1----------------|----------------------|


  E  E  E  E  E  E  E  E     E  E  E  E  E  E  Q       Q    E  E  E  E  Q     
--------------------------|-------------------------|------------------------|
--------------------------|-------------------------|----------9--L--9--7----|
--x--2-----2-----2-----2--|-----2-----2-----2--2----|--7----7----------------|
--------------------------|-------------------------|------------------------|


  Q    E  E  E  E  Q       Q    E  E  E  E  E   E   
------------------------|--------------------------|
--5----5--4--L--5--4----|----------5--L--5--4h--5--|
------------------------|--3----x------------------|
------------------------|--------------------------|


                    |---3---|                           
  E  E  E  E  E  E  E   E   E     Q.     E  E  E  Q     
-------------------------------|-----------------------|
--5--7--L--5--L--4--5p--4h--5--|---------9--L--9--7----|
-------------------------------|--7--------------------|
-------------------------------|-----------------------|


   Q     E  E   E  E  Q       Q    E  E  E  E    Q       Q    E  E  E  E  Q     
---------------------------|--------------------------|------------------------|
--12----12--7h--L--8--9----|----------5--L--5--4g5----|--7----4--5--L--5--7----|
---------------------------|--8----x------------------|------------------------|
---------------------------|--------------------------|------------------------|


  Q    E  E  E  E  Q       Q    E  E  E  E  Q       Q    E  E  E  E  Q     
------------------------|------------------------|------------------------|
------------------------|----------4--L--4--7----|------------------------|
----------3--L--3--7----|--5----5----------------|----------2--L--2--5----|
--5----x----------------|------------------------|--3----3----------------|


         |---3--|   |---3---|                                 
  E   E  E  E   E   E   E   E  Q       Q    E  E  E  E  Q     
--4h--5--5--4h--5p--4h--5p--4-------|------------------------|
-------------------------------5----|------------------------|
------------------------------------|----------0--L--0--3----|
------------------------------------|--2----2----------------|


  Q    E  E  E  E  Q       E   E  E  E   E  E  E   E   
------------------------|----------------------7h--9--|
------------------------|------------7h--9--9---------|
--2----2--0--L--0--3----|--5h--7--7-------------------|
------------------------|-----------------------------|


               |---3---|  |---3---|                            
  E  E   E  E  E   E   E  E   E   E     Q    Q    E  E  E  E   
--7----------------------------------|------------------------|
-----7h--9--9--5h--7p--5--4h--5p--4--|------------------------|
-------------------------------------|--3----3----3--3--3--3--|
-------------------------------------|------------------------|


  E   E  E  E  E  E  E  E     Q    Q    E  E  E  E   
---------------------------|------------------------|
---------------------------|------------------------|
--2h--3--3--3--L--3--3--3--|--2----2----2--2--2--2--|
---------------------------|------------------------|


  E   E  E  E  E  E  E  E     E  E  Q    E  E  E  E   
---------------------------|-------------------------|
---------------------------|-------------------------|
--0h--2--2--2--2--2--2--2--|--2--3--3----3--3--3--3--|
---------------------------|-------------------------|


  E   E  E  E  E  E  Q       E  E  E  E  E  E  E  E     H.           Q     
--------------------------|--------------------------|--------------------|
--------------------------|--------------------------|--------------------|
--2h--3--3--3--L--x-------|--x--2--x--2--x--2--x--2--|--2-----------------|
---------------------x----|--------------------------|---------------x----|


  E  E  E  E  E  E  E  E     E  E  E  E  E  E  Q       E  E  E  E  E  E  E  E   
--------------------------|-------------------------|--------------------------|
--------------------------|-------------------------|--------------------------|
--------------------------|-------------------------|--------------------------|
--0--0--0--6--L--6--6--5--|--L--5--5--3--L--5--3----|--0--0--0--6--L--6--6--5--|


  E  E  E  E  E  E  Q       E  E  E  E  E  E  E  E     E  E  E  E  E  E  Q     
-------------------------|--------------------------|-------------------------|
-------------------------|--------------------------|-------------------------|
-------------------------|--------------------------|-------------------------|
--L--5--5--3--L--5--3----|--0--0--0--6--L--6--6--5--|--L--5--5--3--L--5--3----|


  E  E  E  E  E  E  E  E     E  E  E  E  E  E  Q       Q    Q    Q     Q     
--------------------------|-------------------------|-----------------15----|
--------------------------|-------------------------|-----------------------|
--------------------------|-------------------------|-----------------15----|
--0--0--0--6--L--6--6--5--|--L--5--5--3--L--5--3----|--0----x---------------|


  H        Q    Q       Q    Q    Q     Q       H        Q    Q     
--L------------------|-----------------15----|--L------------------|
---------------------|-----------------------|---------------------|
--L------------------|-----------------15----|--L------------------|
----------------x----|--0--------------------|-----------x----x----|


  E  E  E  E  E  E  E  E     E  E  E  E  E  E  Q       E  E  E  E  E  E  E  E   
--------------------------|-------------------------|--------------------------|
--------------------------|-------------------------|--------------------------|
--------------------------|-------------------------|--------------------------|
--0--0--0--6--L--6--6--5--|--L--5--5--3--L--5--3----|--0--0--0--6--L--6--6--5--|


  E  E  E  E  E  E  Q       E  E   Q    Q     Q        Q.      E  E   E   Q     
-------------------------|--------14----L----------|---------------------------|
-------------------------|--------14----L----------|--12------13--L--13--14----|
-------------------------|-------------------14----|---------------------------|
--L--5--5--3--L--5--3----|--0----------------------|---------------------------|


  Q     Q     E   Q     E      E    E   E  E  E   E    E   E   
---------------------------|--14p--12--14---------------------|
-------14----14------------|---------------0--L--14p--12--14--|
-----------------14----14--|----------------------------------|
--0------------------------|----------------------------------|


  E  E  E  E  E  E  E  E     E  E  E  E  E  E  Q       E  E  E  E  E  E  E  E   
--------------------------|-------------------------|--------------------------|
--------------------------|-------------------------|--------------------------|
--------------------------|-------------------------|--------------------------|
--0--0--0--6--L--6--6--5--|--L--5--5--3--L--5--3----|--0--0--0--6--L--6--6--5--|


  E  E  E  E  Q    Q       Q    Q    E  E  E  E     E   E  E  E   E  E  Q     
------------------------|------------------------|---------------------------|
------------------------|------------------------|---------------------------|
------------------------|--2----2----2--2--2--2--|--0h--2--2--0h--2--2--2----|
--L--5--5--3--L----x----|------------------------|---------------------------|


  E   E  Q    E  E  E  E     E   E  E  E  E  E  Q     
--------------------------|--------------------------|
--------------------------|------------5--L--5-------|
--2h--3--3----3--3--3--3--|--2h--3--x-----------3----|
--------------------------|--------------------------|


  E   E  Q    E  E  E  E     E   E  E  E   E  E  Q       Q    E  E  E  E  Q     
--------------------------|---------------------------|------------------------|
--------------------------|---------------------------|-------------------7----|
--3h--5--5----5--5--5--5--|--3h--5--5--3h--5--5--3----|--0----0--7--L--7-------|
--------------------------|---------------------------|------------------------|


  E   E  E  E   E  E  E   E     Q    Q    E  E  E  E   
-----------------------------|------------------------|
--7p--5-----7p--5-----7p--5--|------------------------|
---------7---------7---------|--2----2----2--2--2--2--|
-----------------------------|------------------------|


  E   E  E  E   E  E  Q       E   E  Q    E  E  E  E   
---------------------------|--------------------------|
---------------------------|--------------------------|
--0h--2--2--0h--2--2--2----|--2h--3--3----3--3--3--3--|
---------------------------|--------------------------|


  E   E  E  E  E  E  Q       Q    E  E  E  E  Q       Q    Q    Q    Q     
--------------------------|------------------------|----------------------|
--------------------------|-------------------5----|--L----3----2---------|
--2h--3--3--5--L--5--3----|----------3--L--3-------|-----------------x----|
--------------------------|--1----x----------------|----------------------|


  E  E  E  E  E  E  E  E     E  E  E  E  E  E  Q       Q    E  E  E  E  Q     
--------------------------|-------------------------|------------------------|
--------------------------|-------------------------|----------9--L--9--7----|
--x--2--x--2--x--2--x--2--|--x--2--x--2--x--2--2----|--7----7----------------|
--------------------------|-------------------------|------------------------|


  Q    E  E  E  E  Q       Q    E  E  E  E  E   E   
------------------------|--------------------------|
--5----5--4--L--5--4----|----------5--L--5--4h--5--|
------------------------|--3----x------------------|
------------------------|--------------------------|


                    |---3---|                           
  E  E  E  E  E  E  E   E   E     Q.     E  E  E  Q     
-------------------------------|-----------------------|
--5--7--L--5--L--4--5p--4h--5--|---------9--L--9--7----|
-------------------------------|--7--------------------|
-------------------------------|-----------------------|


   Q     E  E   E  E  Q       Q    E  E  E  E  Q     
---------------------------|------------------------|
--12----12--7h--L--8--9----|----------5--L--5--5----|
---------------------------|--3----x----------------|
---------------------------|------------------------|


  |---3---|                                              
  E   E   E   E  E  E  E  Q       Q    E  E  E  E  Q     
--5p--4h--5p--4----------------|------------------------|
-----------------5--L--4--5----|------------------------|
-------------------------------|----------3--L--3--7----|
-------------------------------|--5----x----------------|


  Q    E  E  E  E  Q       Q    E  E  E  E  Q     
------------------------|------------------------|
----------4--L--4--7----|------------------------|
--5----5----------------|----------2--L--2--5----|
------------------------|--3----3----------------|


         |---3--|   |---3---|                                 
  E   E  E  E   E   E   E   E  Q       Q    E  E  E  E  Q     
--4h--5--5--4h--5p--4h--5p--4-------|------------------------|
-------------------------------5----|------------------------|
------------------------------------|----------0--L--0--3----|
------------------------------------|--2----2----------------|


  Q    E  E  E  E  E  E     E   E  E  E  E  E  E   E   
-------------------------|----------------------------|
----------1--L--1--4--5--|------------9--L--9--7h--9--|
--2----2-----------------|--5h--7--7------------------|
-------------------------|----------------------------|


  |---3---|   |---3--|        |---3---|                            
  E   E   E   E   E  E  E  E  E   E   E     Q    Q    E  E  E  E   
--7h--9p--7h--9p--7----------------------|------------------------|
---------------------9--L--7--5h--7p--5--|------------------------|
-----------------------------------------|--3----3----3--3--3--3--|
-----------------------------------------|------------------------|


  E   E  E  E  E  E  E  E     Q    Q    E  E  E  E     Q    E  E  E  E  E  E   
---------------------------|------------------------|-------------------------|
---------------------------|------------------------|-------------------------|
--2h--3--3--3--L--3--3--3--|--2----2----2--2--2--2--|--2----2--2--L--2--2--2--|
---------------------------|------------------------|-------------------------|


  E  E  Q    E  E  E  E     E   E  E  E   E  E  Q     
-------------------------|---------------------------|
-------------------------|---------------------------|
--2--3--3----3--3--3--3--|--2h--3--3--2h--3--x-------|
-------------------------|----------------------x----|


  E  E  E  E  E  E  E  E     H.           Q       W                 
--------------------------|--------------------|-------------------|
--------------------------|--------------------|-------------------|
--x--2--x--2--x--2--x--2--|--2-----------------|-------------------|
--------------------------|---------------x----|--0----------------|


  H.           Q       W                   H.           Q     
--------------------|-------------------|--------------------|
--------------------|-------------------|--------------------|
--------------------|-------------------|--------------------|
--L------------x----|--7----------------|--L------------x----|


                        |----3----|  |---3--|    |----3----|   |----3----|   
   W                    E    E    E  E  E   E    E    E    E   E    E    E   
--------------------|-------------------------------------------------------|
--14----------------|--12h--13h--14--L-----13h--14p--13h--14--12h--13h--14--|
--------------------|-------------------------------------------------------|
--------------------|-------------------------------------------------------|


   |---3---|   |---3---|                                                        
   E   E   E   E   E   E   E    E   E    E         Q        Q     E    E  Q     
-----------------------------------12h--14--|----------------------------------|
--14--13--14--13--14--13--12h--14-----------|--12g14----12g14------------------|
--------------------------------------------|--------------------12h--14-------|
--------------------------------------------|-----------------------------x----|


  E  E  E  E  E  E  E  E     E  E  E  E  E  E  Q       E  E  E  E  E  E  E  E   
--------------------------|-------------------------|--------------------------|
--------------------------|-------------------------|--------------------------|
--------------------------|-------------------------|--------------------------|
--0--0--0--6--L--6--6--5--|--L--5--5--3--L--5--3----|--0--0--0--6--L--6--6--5--|


  E  E  E  E  E  E  Q       E  E  E  E  E  E  E  E     E  E  E  E  E  E  Q     
-------------------------|--------------------------|-------------------------|
-------------------------|--------------------------|-------------------------|
-------------------------|--------------------------|-------------------------|
--L--5--5--3--L--5--3----|--0--0--0--6--L--6--6--5--|--L--5--5--3--L--5--3----|


  E  E  E  E  E  E  E  E     E  E  E  E  E  E  Q       E  E  E  E  E  E  E  E   
--------------------------|-------------------------|--------------------------|
--------------------------|-------------------------|--------------------------|
--------------------------|-------------------------|--------------------------|
--0--0--0--6--L--6--6--5--|--L--5--5--3--L--5--3----|--0--0--0--6--L--6--6--5--|


  E  E  E  E  E  E  Q       E  E  E  E  E  E  E  E     E  E  E  E  E  E  Q     
-------------------------|--------------------------|-------------------------|
-------------------------|--------------------------|-------------------------|
-------------------------|--------------------------|-------------------------|
--L--5--5--3--L--5--3----|--0--0--0--6--L--6--6--5--|--L--5--5--3--L--5--3----|


  E  E  E  E  E  E  E  E     E  E  E  E  E  E  Q       E  E  E  E  E  E  E  E   
--------------------------|-------------------------|--------------------------|
--------------------------|-------------------------|--------------------------|
--------------------------|-------------------------|--------------------------|
--0--0--0--6--L--6--6--5--|--L--5--5--3--L--5--3----|--0--0--0--6--L--6--6--5--|


  E  E  E  E  E  E  Q       Q    Q    E  E  E  E     Q    E  E  E  E  Q     
-------------------------|------------------------|------------------------|
-------------------------|------------------------|------------------------|
-------------------------|--2----2----2--2--2--2--|--2----2--2--L--2--2----|
--L--5--5--3--L--5--x----|------------------------|------------------------|


  Q    Q    E  E  E  E     Q    E  E  E  E  Q       Q    Q    E  E  E  E   
------------------------|------------------------|------------------------|
------------------------|------------------------|------------------------|
--5----5----5--5--5--5--|--5----5--5--L--5--5----|------------------------|
------------------------|------------------------|--0----0----0--0--0--0--|


  Q    E  E  E  E  Q       Q    Q    E  E  E  E     Q    E  E  E  E  Q     
------------------------|------------------------|------------------------|
------------------------|------------------------|------------------------|
------------------------|--2----2----2--2--2--2--|--2----2--2--L--2--2----|
--1----1--1--L--1--1----|------------------------|------------------------|


  Q    Q    E  E  E  E     Q    E  E  E  E  Q       H.           Q     
------------------------|------------------------|--------------------|
------------------------|------------------------|--------------------|
--5----5----5--5--5--5--|--5----5--5--L--5--5----|--7-----------------|
------------------------|------------------------|---------------x----|


  Q    Q    Q    Q       Q    Q    E  E  Q       Q    E  E  E  E  Q     
----------------------|-----------------------|------------------------|
----------------------|-----------------------|------------------------|
----------------------|--2----2----2--2--2----|--2----2--2--L--2--2----|
--1----1----1----x----|-----------------------|------------------------|


  Q    Q    E  E  E  E     Q    E  E  E  E  Q       Q    Q    E  E  E  E   
------------------------|------------------------|------------------------|
------------------------|------------------------|------------------------|
--5----5----5--5--5--5--|--5----5--5--L--5--5----|--7----7----7--7--7--7--|
------------------------|------------------------|------------------------|


  Q    E  E  E  E  Q       Q    Q    E  E  E  E     Q    E  E  E  E  Q     
------------------------|------------------------|------------------------|
------------------------|------------------------|------------------------|
--8----8--8--L--8--x----|--2----2----2--2--2--2--|--2----2--2--L--2--2----|
------------------------|------------------------|------------------------|


  Q    Q    E  E  E  E     Q    E  E  E  E  Q       Q    Q    E  E  E  E   
------------------------|------------------------|------------------------|
------------------------|------------------------|------------------------|
--5----5----5--5--5--5--|--5----5--5--L--5--5----|--7----7----7--7--7--7--|
------------------------|------------------------|------------------------|


  Q    Q    E  E  Q       Q    Q    E  E  E  E      Q     Q     Q     Q     
-----------------------|------------------------|--------------------------|
-----------------------|------------------------|--------------------------|
--8----8----8--8--8----|--9----9----9--9--9--9--|--10----11----12----13----|
-----------------------|------------------------|--------------------------|


  Q    E  E  E  E  Q       Q    E  E  E  E  Q       Q    E  E  E  E  E   E   
------------------------|------------------------|--------------------------|
----------9--L--9--7----|--5----5--4--L--5--4----|----------5--L--5--4h--5--|
--7----7----------------|------------------------|--3----x------------------|
------------------------|------------------------|--------------------------|


                    |---3---|                           
  E  E  E  E  E  E  E   E   E     Q.     E  E  E  Q     
-------------------------------|-----------------------|
--5--7--L--5--L--4--5p--4h--5--|---------9--L--9--7----|
-------------------------------|--7--------------------|
-------------------------------|-----------------------|


   Q     E  E   E  E  Q       Q    E  E  E  E  Q     
---------------------------|------------------------|
--12----12--7h--L--8--9----|----------5--L--5--5----|
---------------------------|--3----x----------------|
---------------------------|------------------------|


  |---3---|                                              
  E   E   E   E  E  E  E  Q       Q    E  E  E  E  Q     
--5p--4h--5p--4----------------|------------------------|
-----------------5--L--4--5----|------------------------|
-------------------------------|----------3--L--3--7----|
-------------------------------|--5----5----------------|


  Q    E  E  E  E  Q       Q    E  E  E  E  Q     
------------------------|------------------------|
------------------------|------------------------|
--5----5-----------5----|--2----2-----------2----|
----------5--L--5-------|----------3--L--3-------|


         |---3--|   |---3---|                                
  E   E  E  E   E   E   E   E  Q       Q.     E  E  E  Q     
--4h--5--5--4h--5p--4h--5p--4-------|-----------------------|
-------------------------------5----|-----------------------|
------------------------------------|--0------2--L--2--3----|
------------------------------------|-----------------------|


  Q    E  E  E  E  Q       E   E  E  E   E  E  E   E   
------------------------|----------------------7h--9--|
------------------------|------------7h--9--9---------|
--2----2--0--L--0-------|--5h--7--7-------------------|
-------------------3----|-----------------------------|


               |---3---|  |---3---|                             
  E  E   E  E  E   E   E  E   E   E     Q    E  E  E  E  E  E   
--9----------------------------------|-------------------------|
-----7h--9--9--5h--7p--5--4h--5p--4--|-------------------------|
-------------------------------------|--3----3--3--3--3--3--3--|
-------------------------------------|-------------------------|


  E   E  E  E  E  E  E  E     Q    E  E  E  E  E  E     Q    E  E  E  E  E  E   
---------------------------|-------------------------|-------------------------|
---------------------------|-------------------------|-------------------------|
--2h--3--3--3--L--3--3--3--|--2----2--2--2--2--2--2--|--2----2--2--2--2--2--2--|
---------------------------|-------------------------|-------------------------|


  Q    E  E  E  E  E  E     E   E  E  E  E  E  Q       E  E  E  E  E  E  E  E   
-------------------------|--------------------------|--------------------------|
-------------------------|--------------------------|--------------------------|
--3----3--3--3--3--3--3--|--2h--3--3--2--L--3--4----|--x--2--x--2--x--2--x--2--|
-------------------------|--------------------------|--------------------------|


  H.           Q       E  E  E  E  E  E  E  E     E  E  E  E  E  E  Q     
--------------------|--------------------------|-------------------------|
--------------------|--------------------------|-------------------------|
--2-----------------|--------------------------|-------------------------|
---------------x----|--0--0--0--6--L--6--6--5--|--L--5--5--3--L--5--3----|


  E  E  E  E  E  E  E  E     E  E  E  E  E  E  Q     
--------------------------|-------------------------|
--------------------------|-------------------------|
--------------------------|-------------------------|
--0--0--0--6--L--6--6--5--|--L--5--5--3--L--5--3----|


  E  E  E   E  E   E   E   E     E   E   E   E  E   E   Q     
------------------------------|------------------------------|
------------------------------|------------------------------|
--7--7--7---------------------|------------------------------|
-----------13--L--13--13--12--|--L--12--12--10--L--12--10----|


  E  E  E   E  E   E   E   E     E   E   E   E  E   E   Q     
------------------------------|------------------------------|
------------------------------|------------------------------|
--7--7--7---------------------|------------------------------|
-----------13--L--13--13--12--|--L--12--12--10--L--12--10----|


  W                   W                   W                   W                 
-------------------|-------------------|-------------------|-------------------|
-------------------|-------------------|-------------------|-------------------|
-------------------|-------------------|-------------------|-------------------|
--0----------------|--L----------------|--L----------------|--L----------------|


  W                  
-------------------||
-------------------||
-------------------||
--L----------------||




Duration Legend
---------------
W - whole
H - half
Q - quarter
E - 8th
S - 16th
T - 32nd
X - 64th
. - note dotted
|-n-|  - n-tuplets


Tablature Legend
----------------
L - tied note
x - dead note
g - grace note
(n) - ghost note
> - accentuded note
NH - natural harmonic
AH - artificial harmonic
TH - tapped harmonic
SH - semi harmonic
PH - pitch harmonic
h - hammer on
p - pull off
b - bend
br - bendRelease
pb - preBend
pbr - preBendRelease
brb - bendReleaseBend
\n/ - tremolo bar dip
\n - tremolo bar dive
-/n - tremolo bar Release up
/n\ - tremolo bar inverted dip
/n - tremolo bar return
-\n - tremolo bar Release down
S - shift slide
s - legato slide
/ -  slide into from below or out of upwards
\ -  slide into from above or out of downwards
~ - vibrato
W - wide vibrato
tr - trill
TP - tremolo picking
T - tapping
S - slap
P - pop
< - fade in
^ - brush up
v - brush down
Добавлено: 29.05.2012
Другие материалы по этой песне:

Страница создана 16.05.2012
http://primanota.ru/larc-en-ciel/route-666-chords.htm
Привет, Гость.
Предлагаем пройти революционный курс по гитаре.
Подарок от PrimaNota.Ru, забирай!