PrimaNota.ru - самый крупный в мире бесплатный архив песенных текстов, аккордов, табулатур и нот


L'arc En Ciel - Heavens Drive - аккорды и текст, таба, бас-таба, видео

Регистрация Запомнить меня
Войти через:  Facebook Google Twitter Vk Yandex Mail.ru

L'arc En Ciel - Heavens Drive - аккорды и текст, таба, бас-таба, видео

Печатать
Просмотров: 175
Авторы музыки: hyde
Авторы текста: hyde
Heavens Drive
L'arc En Ciel
 L'Arc en Ciel
 Heaven's Drive

 Tab by Mari no koibito


 Intro

 Guitar 2
e|--5--5--x-x-x-x--5--5--x-x-x-x--|--3--x-3-x-x-3--x-3-x-x-3--5--|-------|-------|-------|
B|--6--6--x-x-x-x--5--5--x-x-x-x--|--3--x-3-x-x-3--x-3-x-x-3--5--|-------|-------|-------|
G|--7--7--x-x-x-x--5--5--x-x-x-x--|--3--x-3-x-x-3--x-3-x-x-3--5--|--//--|--//--|--//--|
A|--7--7--x-x-x-x--6--6--x-x-x-x--|--5--x-5-x-x-5--x-5-x-x-5--7--|--//--|--//--|--//--|
D|--5--5--x-x-x-x--6--6--x-x-x-x--|--5--x-5-x-x-5--x-5-x-x-5--7--|-------|-------|-------|
E|--x--x--x-x-x-x--5--5--x-x-x-x--|--3--x-3-x-x-3--x-3-x-x-3--5--|-------|-------|-------|


 Verse A

 Guitar 2
e|--5--5--x-x-x-x--5--5--x-x-x-x--|--3--x-3-x-x-3--x-3-x-x-3--5--|-------|-------|
B|--6--6--x-x-x-x--5--5--x-x-x-x--|--3--x-3-x-x-3--x-3-x-x-3--5--|-------|-------|
G|--7--7--x-x-x-x--5--5--x-x-x-x--|--3--x-3-x-x-3--x-3-x-x-3--5--|--//--|--//--|
A|--7--7--x-x-x-x--6--6--x-x-x-x--|--5--x-5-x-x-5--x-5-x-x-5--7--|--//--|--//--|
D|--5--5--x-x-x-x--6--6--x-x-x-x--|--5--x-5-x-x-5--x-5-x-x-5--7--|-------|-------|
E|--x--x--x-x-x-x--5--5--x-x-x-x--|--3--x-3-x-x-3--x-3-x-x-3--5--|-------|-------|
         akitari  nain...
 Guitar 2
e|--5--5--x-x-x-x--5--5--x-x-x-x--|--3--x-x-x-3--x-x-x-x-3--x-x--|--x-x-3--x-x-3--3--5--5--|
B|--6--6--x-x-x-x--5--5--x-x-x-x--|--3--x-x-x-3--x-x-x-x-3--x-x--|--x-x-3--x-x-3--3--5--5--|
G|--7--7--x-x-x-x--5--5--x-x-x-x--|--3--x-x-x-3--x-x-x-x-3--x-x--|--x-x-3--x-x-3--3--6--6--|
A|--7--7--x-x-x-x--7--7--x-x-x-x--|--5--x-x-x-5--x-x-x-x-5--x-x--|--x-x-5--x-x-5--5--7--7--|
D|--5--5--x-x-x-x--7--7--x-x-x-x--|--5--x-x-x-5--x-x-x-x-5--x-x--|--x-x-5--x-x-5--5--7--7--|
E|--x--x--x-x-x-x--5--5--x-x-x-x--|--3--x-x-x-3--x-x-x-x-3--x-x--|--x-x-3--x-x-3--3--5--5--|
          hone made...                              leave me alone!


 Interlude

 Guitar 1                      
e|--12hc12hd12-----12hc12--|--hp12--10---------------|
B|-------------10----------|------------10-----------|
G|-------------------------|------------12-12-10-----|
A|-------------------------|---------------------12--|
D|-------------------------|-------------------------|
E|-------------------------|-------------------------|
 Guitar 2                      
e|--5--5--x-x-x-x--5--5--x-x-x-x--|--3--x-3-x-x-3--x-3-x-x-3--5--|
B|--6--6--x-x-x-x--5--5--x-x-x-x--|--3--x-3-x-x-3--x-3-x-x-3--5--|
G|--7--7--x-x-x-x--5--5--x-x-x-x--|--3--x-3-x-x-3--x-3-x-x-3--5--|
A|--7--7--x-x-x-x--7--7--x-x-x-x--|--5--x-5-x-x-5--x-5-x-x-5--7--|
D|--5--5--x-x-x-x--7--7--x-x-x-x--|--5--x-5-x-x-5--x-5-x-x-5--7--|
E|--x--x--x-x-x-x--5--5--x-x-x-x--|--3--x-3-x-x-3--x-3-x-x-3--5--|
  
 Guitar 1                       
e|---------------------------------|----------------------|
B|----------------10-10--------10--|--12-12--12-12-12-12--|
G|--9------10--12-------10--12-----|--12-12--12-12-12-12--|
A|-----12--------------------------|----------------------|
D|---------------------------------|----------------------|
E|---------------------------------|----------------------|
 Guitar 2                      
e|--5--5--x-x-x-x--5--5--x-x-x-x--|--3--x-3-x-x-3--x-3-x-x-3--5--|
B|--6--6--x-x-x-x--5--5--x-x-x-x--|--3--x-3-x-x-3--x-3-x-x-3--5--|
G|--7--7--x-x-x-x--5--5--x-x-x-x--|--3--x-3-x-x-3--x-3-x-x-3--5--|
A|--7--7--x-x-x-x--7--7--x-x-x-x--|--5--x-5-x-x-5--x-5-x-x-5--7--|
D|--5--5--x-x-x-x--7--7--x-x-x-x--|--5--x-5-x-x-5--x-5-x-x-5--7--|
E|--x--x--x-x-x-x--5--5--x-x-x-x--|--3--x-3-x-x-3--x-3-x-x-3--5--|


 Verse A

 Guitar 1
e|-----------------------------------|-------------------------------|-------|
B|--x-x-x-x-10--x-x-----x-x-10--x-x--|------x-x------10--x-x-13--10--|-------|
G|------------------12---------------|--12--------/------------------|--//--| 
A|-----------------------------------|-----------/-------------------|--//--|
D|-----------------------------------|-------------------------------|-------|
E|-----------------------------------|-------------------------------|-------|
 Guitar 2
e|--5--5--x-x-x-x--5--5--x-x-x-x--|--3--x-3-x-x-3--x-3-x-x-3--5--|-------|
B|--6--6--x-x-x-x--5--5--x-x-x-x--|--3--x-3-x-x-3--x-3-x-x-3--5--|-------|
G|--7--7--x-x-x-x--5--5--x-x-x-x--|--3--x-3-x-x-3--x-3-x-x-3--5--|--//--|
A|--7--7--x-x-x-x--6--6--x-x-x-x--|--5--x-5-x-x-5--x-5-x-x-5--7--|--//--|
D|--5--5--x-x-x-x--6--6--x-x-x-x--|--5--x-5-x-x-5--x-5-x-x-5--7--|-------|
E|--x--x--x-x-x-x--5--5--x-x-x-x--|--3--x-3-x-x-3--x-3-x-x-3--5--|-------|
          kizuguchi...
 Guitar 1
e|-----------------------------------|-------------------13-13-13-13------|
B|--x-x-x-x-10--x-x-----x-x-10--x-x--|------x-x------10-------------------|
G|------------------12---------------|--12-------12--------------------/--|
A|-----------------------------------|--------------------------------/---|
D|-----------------------------------|------------------------------------|
E|-----------------------------------|------------------------------------|
 Guitar 2
e|--5--5--x-x-x-x--5--5--x-x-x-x--|--3--x-3-x-x-3--x-3-x-x-3--5--|
B|--6--6--x-x-x-x--5--5--x-x-x-x--|--3--x-3-x-x-3--x-3-x-x-3--5--|
G|--7--7--x-x-x-x--5--5--x-x-x-x--|--3--x-3-x-x-3--x-3-x-x-3--5--|
A|--7--7--x-x-x-x--6--6--x-x-x-x--|--5--x-5-x-x-5--x-5-x-x-5--7--|
D|--5--5--x-x-x-x--6--6--x-x-x-x--|--5--x-5-x-x-5--x-5-x-x-5--7--|
E|--x--x--x-x-x-x--5--5--x-x-x-x--|--3--x-3-x-x-3--x-3-x-x-3--5--|
           sonna  RENZU...
 Guitar 1
e|-----------------------------------|--6--x-x--x-x--6---x-x-x-x--6--|
B|--x-x-x-x-10--x-x-----x-x-10--x-x--|--6--x-x--x-x--6---x-x-x-x--6--|
G|------------------12---------------|-------------------------------|
A|-----------------------------------|-------------------------------|
D|-----------------------------------|-------------------------------|
E|-----------------------------------|-------------------------------|
 Guitar 2
e|--5--5--x-x-x-x--5--5--x-x-x-x--|--6--x-x-x-x-6--x-x-x-x-6--x-x--|
B|--6--6--x-x-x-x--5--5--x-x-x-x--|--6--x-x-x-x-6--x-x-x-x-6--x-x--|
G|--7--7--x-x-x-x--5--5--x-x-x-x--|--7--x-x-x-x-7--x-x-x-x-7--x-x--|
A|--7--7--x-x-x-x--7--7--x-x-x-x--|--8--x-x-x-x-8--x-x-x-x-8--x-x--|
D|--5--5--x-x-x-x--7--7--x-x-x-x--|--8--x-x-x-x-8--x-x-x-x-8--x-x--|
E|--x--x--x-x-x-x--5--5--x-x-x-x--|--6--x-x-x-x-6--x-x-x-x-6--x-x--|
         torawareta...


 Verse C

 Guitar 2                      
e|--x-x-6--x-x-x-x--6--6--x--6--|--6--6--6---6--6--x--4--|--4--4--4---4--4--x-----|
B|--x-x-6--x-x-x-x--6--6--x--7--|--7--7--7---7--7--x--4--|--4--4--4---4--4--x--6--|
G|--x-x-7--x-x-x-x--7--7--x--8--|--8--8--8---8--8--x--5--|--5--5--6---6--5--x--6--|
A|--x-x-8--x-x-x-x--8--8--x--8--|--8--8--8---8--8--x--6--|--6--6--6---6--6--x--6--|
D|--x-x-8--x-x-x-x--8--8--x--6--|--6--6--6---6--6--x-----|---------------------4--|
E|--x-x-6--x-x-x-x--6--6--x-----|------------------------|------------------------|
        kowaresou            na...   
 Guitar 2                      
e|---------------------6--|--6--6--6--6--6--6--x--6--|--6--6--6---6--6--x--4--|
B|--6--6--7---7--6--x--7--|--7--7--7--7--7--6--x--7--|--7--7--7---7--7--x--4--|
G|--6--6--6---6--6--x--6--|--6--6--6--6--6--6--x--8--|--8--8--8---8--8--x--5--|
A|--6--6--6---6--6--x--8--|--8--8--8--8--8--8--x--8--|--8--8--8---8--8--x--6--|
D|--4--4--4---4--4--x-----|-----------------------6--|--6--6--6---6--6--x-----|
E|------------------------|--------------------------|------------------------|
 					    sekai ni...
 Guitar 2                      
e|--4--4--4---4--4--x-----|------------------------|--6--6--x--6--x--6--x--6--|
B|--4--4--4---4--4--x--6--|--6--6--6---6--6--x--x--|--6--6--x--6--x--6--x--7--|
G|--5--5--6---6--5--x--6--|--6--6--6---6--6--x--x--|--7--7--x--8--x--7--x--8--|
A|--6--6--6---6--6--x--6--|--6--6--6---6--6--x--x--|--8--8--x--8--x--8--x--8--|
D|---------------------4--|--4--4--4---4--4--x--x--|-----------------------6--|    
E|------------------------|------------------------|--------------------------|
						     Ride on Heaven's Drive...	
 Guitar 2
e|--6--6--6---6--6--x--4--|--4--4--4---4--4--x-----|---------------------6--|
B|--7--7--7---7--7--x--4--|--4--4--4---4--4--x--6--|--6--6--7---7--6--x--7--|
G|--8--8--8---8--8--x--5--|--5--5--6---6--5--x--6--|--6--6--6---6--6--x--6--|
A|--8--8--8---8--8--x--6--|--6--6--6---6--6--x--6--|--6--6--6---6--6--x--8--|
D|--6--6--6---6--6--x-----|---------------------4--|--4--4--4---4--4--x-----|
E|------------------------|------------------------|------------------------|

 Guitar 2
e|--6--6--6--6--6--6--x--6--|--6--6--6---6--6--x--4--|--4--4--4---4--4--x--x--|
B|--7--7--7--7--7--6--x--7--|--7--7--7---7--7--x--4--|--4--4--4---4--4--x--x--|
G|--6--6--6--6--6--6--x--8--|--8--8--8---8--8--x--5--|--5--5--6---6--5--x--x--|
A|--8--8--8--8--8--8--x--8--|--8--8--8---8--8--x--6--|--6--6--6---6--6--x--x--|
D|-----------------------6--|--6--6--6---6--6--x-----|------------------------|
E|--------------------------|------------------------|------------------------|
         atarashii...
 Guitar 2
e|--5--5--x-x-x-x--5--5--x-x-x-x--|--3--x-3-x-x-3--x-3-x-x-3--5--|-------|
B|--6--6--x-x-x-x--5--5--x-x-x-x--|--3--x-3-x-x-3--x-3-x-x-3--5--|-------|
G|--7--7--x-x-x-x--5--5--x-x-x-x--|--3--x-3-x-x-3--x-3-x-x-3--5--|--//--|
A|--7--7--x-x-x-x--6--6--x-x-x-x--|--5--x-5-x-x-5--x-5-x-x-5--7--|--//--|
D|--5--5--x-x-x-x--6--6--x-x-x-x--|--5--x-5-x-x-5--x-5-x-x-5--7--|-------|
E|--x--x--x-x-x-x--5--5--x-x-x-x--|--3--x-3-x-x-3--x-3-x-x-3--5--|-------|
    notte...


 Verse A

 Guitar 2
e|--5--5--x-x-x-x--5--5--x-x-x-x--|--3--x-3-x-x-3--x-3-x-x-3--5--|-------|-------|
B|--6--6--x-x-x-x--5--5--x-x-x-x--|--3--x-3-x-x-3--x-3-x-x-3--5--|-------|-------|
G|--7--7--x-x-x-x--5--5--x-x-x-x--|--3--x-3-x-x-3--x-3-x-x-3--5--|--//--|--//--|
A|--7--7--x-x-x-x--6--6--x-x-x-x--|--5--x-5-x-x-5--x-5-x-x-5--7--|--//--|--//--|
D|--5--5--x-x-x-x--6--6--x-x-x-x--|--5--x-5-x-x-5--x-5-x-x-5--7--|-------|-------|
E|--x--x--x-x-x-x--5--5--x-x-x-x--|--3--x-3-x-x-3--x-3-x-x-3--5--|-------|-------|
          karada wa...
 Guitar 2
e|--5--5--x-x-x-x--5--5--x-x-x-x--|--6--x-x-x-x-6--x-x-x-x-6--x-x--|
B|--6--6--x-x-x-x--5--5--x-x-x-x--|--6--x-x-x-x-6--x-x-x-x-6--x-x--|
G|--7--7--x-x-x-x--5--5--x-x-x-x--|--7--x-x-x-x-7--x-x-x-x-7--x-x--|
A|--7--7--x-x-x-x--7--7--x-x-x-x--|--8--x-x-x-x-8--x-x-x-x-8--x-x--|
D|--5--5--x-x-x-x--7--7--x-x-x-x--|--8--x-x-x-x-8--x-x-x-x-8--x-x--|
E|--x--x--x-x-x-x--5--5--x-x-x-x--|--6--x-x-x-x-6--x-x-x-x-6--x-x--|
          daremo   te    ni oe......nai...
         

 Verse C

 Guitar 2                      
e|--x-x-6--x-x-x-x--6--6--x--6--|--6--6--6---6--6--x--4--|--4--4--4---4--4--x-----|
B|--x-x-6--x-x-x-x--6--6--x--7--|--7--7--7---7--7--x--4--|--4--4--4---4--4--x--6--|
G|--x-x-7--x-x-x-x--7--7--x--8--|--8--8--8---8--8--x--5--|--5--5--6---6--5--x--6--|
A|--x-x-8--x-x-x-x--8--8--x--8--|--8--8--8---8--8--x--6--|--6--6--6---6--6--x--6--|
D|--x-x-8--x-x-x-x--8--8--x--6--|--6--6--6---6--6--x-----|---------------------4--|
E|--x-x-6--x-x-x-x--6--6--x-----|------------------------|------------------------|
        mabushii   kurai     no...  
 Guitar 2                      
e|---------------------6--|--6--6--6--6--6--6--x--6--|--6--6--6---6--6--x--4--|
B|--6--6--7---7--6--x--7--|--7--7--7--7--7--6--x--7--|--7--7--7---7--7--x--4--|
G|--6--6--6---6--6--x--6--|--6--6--6--6--6--6--x--8--|--8--8--8---8--8--x--5--|
A|--6--6--6---6--6--x--8--|--8--8--8--8--8--8--x--8--|--8--8--8---8--8--x--6--|
D|--4--4--4---4--4--x-----|-----------------------6--|--6--6--6---6--6--x-----|
E|------------------------|--------------------------|------------------------|
 					   subete wo...
 Guitar 2                      
e|--4--4--4---4--4--x-----|------------------------|--6--6--x--6--x--6--x--6--|
B|--4--4--4---4--4--x--6--|--6--6--6---6--6--x--x--|--6--6--x--6--x--6--x--7--|
G|--5--5--6---6--5--x--6--|--6--6--6---6--6--x--x--|--7--7--x--8--x--7--x--8--|
A|--6--6--6---6--6--x--6--|--6--6--6---6--6--x--x--|--8--8--x--8--x--8--x--8--|
D|---------------------4--|--4--4--4---4--4--x--x--|-----------------------6--|    
E|------------------------|------------------------|--------------------------|
						     Ride on Heaven's Drive...	
 Guitar 2
e|--6--6--6---6--6--x--4--|--4--4--4---4--4--x-----|---------------------6--|
B|--7--7--7---7--7--x--4--|--4--4--4---4--4--x--6--|--6--6--7---7--6--x--7--|
G|--8--8--8---8--8--x--5--|--5--5--6---6--5--x--6--|--6--6--6---6--6--x--6--|
A|--8--8--8---8--8--x--6--|--6--6--6---6--6--x--6--|--6--6--6---6--6--x--8--|
D|--6--6--6---6--6--x-----|---------------------4--|--4--4--4---4--4--x-----|
E|------------------------|------------------------|------------------------|

 Guitar 2
e|--6--6--6--6--6--6--x--6--|--6--6--6---6--6--x--4--|--4--4--4--4--4--4--4--x--x--|
B|--7--7--7--7--7--6--x--7--|--7--7--7---7--7--x--4--|--4--4--4--4--4--4--4--x--x--|
G|--6--6--6--6--6--6--x--8--|--8--8--8---8--8--x--5--|--5--5--6--6--6--5--5--x--x--|
A|--8--8--8--8--8--8--x--8--|--8--8--8---8--8--x--6--|--6--6--6--6--6--6--6--x--x--|
D|-----------------------6--|--6--6--6---6--6--x-----|-----------------------------|
E|--------------------------|------------------------|-----------------------------|
         atarashii...


 Verse D

 Guitar 2
e|--------------------|-------------------|--------------------|-------------------|---------|
B|--------------------|-------------------|--------------------|-------------------|---------|
G|--------------------|-------------------|--------------------|-------------------|--////--|
A|--------------------|-------------------|--------------------|-------------------|--////--|
D|--8-8-8-8--8-8-8-8--|--8-8-8-8---8-8-8--|--4-4-4-4--4-4-4-4--|--4-4-4-4---4-4-4--|---------|
E|--6-6-6-6--6-6-6-6--|--6-6-6-6---6-6-6--|--2-2-2-2--2-2-2-2--|--2-2-2-2---2-2-2--|---------|
    kimi to...            doko made mo...


 Ken solo

 Guitar 1
e|--11----------12----|--14--------15------|--15ud15---15--------------|
B|--------------------|--------------------|---------------14hc14hd14--|
G|--------------------|--------------------|---------------------------|
A|--------------------|--------------------|---------------------------|
D|--------------------|--------------------|---------------------------|
E|--------------------|--------------------|---------------------------|
 Guitar 2
e|--------------------|--------------------|--------------------|
B|--------------------|--------------------|--------------------|
G|--------------------|--------------------|--------------------|
A|--------------------|--------------------|--------------------|
D|--9-9-9-9--9-9-9-9--|--9-9-9-9--9-9-9-9--|--5-5-5-5--5-5-5-5--|
E|--7-7-7-7--7-7-7-7--|--7-7-7-7--7-7-7-7--|--3-3-3-3--3-3-3-3--|

 Guitar 1
e|------------------------------|---------------14--|--12p11----11-----------------|
B|------------------------------|---------12--------|--------14----12--14--12--14--|
G|--14-12-----12--12--12h14p12--|--11--11----11-----|------------------------------|
A|---------14-------------------|-------------------|------------------------------|
D|------------------------------|-------------------|------------------------------|
E|------------------------------|-------------------|------------------------------|
 Guitar 2
e|--------------------|--------------------|--------------------|
B|--------------------|--------------------|--------------------|
G|--------------------|--------------------|--------------------|
A|--------------------|--------------------|--------------------|
D|--5-5-5-5--5-5-5-5--|--9-9-9-9--9-9-9-9--|--9-9-9-9--9-9-9-9--|
E|--3-3-3-3--3-3-3-3--|--7-7-7-7--7-7-7-7--|--7-7-7-7--7-7-7-7--|

 Guitar 1
e|--------------------|--17h21p17-15h19p15-14h15p14s12----10h12p10s9----9h10p9--------|
B|--14--15------------|--------------------------------14------------12--------10-12--|
G|--------------------|---------------------------------------------------------------|
A|--------------------|---------------------------------------------------------------|
D|--------------------|---------------------------------------------------------------|
E|--------------------|---------------------------------------------------------------|
 Guitar 2
e|--------------------|---------------------------------------------------------------|
B|--------------------|---------------------------------------------------------------|
G|--------------------|---------------------------------------------------------------|
A|--------------------|---------------------------------------------------------------|
D|--5-5-5-5--5-5-5-5--|---------------------------------------------------------------|
E|--3-3-3-3--3-3-3-3--|---------------------------------------------------------------|

 Guitar 1
e|--10----10-------------------10----10--|---------------------------|
B|-----------13-10----10----------10-----|---------------------------|
G|-----12----------12----12-12-----------|--12-12-10-12-10-----------|
A|---------------------------------------|------------------12-------|
D|---------------------------------------|---------------------------|
E|---------------------------------------|----------------------8-9--|
 Guitar 2
e|--5--5--x-x-x-x--5--5--x-x-x-x--|--3--x-3-x-x-3--x-3-x-x-3--5--|
B|--6--6--x-x-x-x--5--5--x-x-x-x--|--3--x-3-x-x-3--x-3-x-x-3--5--|
G|--7--7--x-x-x-x--5--5--x-x-x-x--|--3--x-3-x-x-3--x-3-x-x-3--5--|
A|--7--7--x-x-x-x--7--7--x-x-x-x--|--5--x-5-x-x-5--x-5-x-x-5--7--|
D|--5--5--x-x-x-x--7--7--x-x-x-x--|--5--x-5-x-x-5--x-5-x-x-5--7--|
E|--x--x--x-x-x-x--5--5--x-x-x-x--|--3--x-3-x-x-3--x-3-x-x-3--5--|

 Guitar 1
e|----------------------10-10-----------|--13-13-x-12-12-12-------------13--|
B|----------------------10-10-----------|-------------------10-10-15-15-----|
G|-------------------10-------12-10-12--|-------------------10-10-----------|
A|-------------10-12--------------------|-----------------------------------|
D|-----8-10-12--------------------------|-----------------------------------|
E|--10----------------------------------|-----------------------------------|
 Guitar 2
e|--5--5--x-x-x-x--5--5--x-x-x-x--|--3--x-3-x-x-3--x-3-x-x-3--5--|
B|--6--6--x-x-x-x--5--5--x-x-x-x--|--3--x-3-x-x-3--x-3-x-x-3--5--|
G|--7--7--x-x-x-x--5--5--x-x-x-x--|--3--x-3-x-x-3--x-3-x-x-3--5--|
A|--7--7--x-x-x-x--7--7--x-x-x-x--|--5--x-5-x-x-5--x-5-x-x-5--7--|
D|--5--5--x-x-x-x--7--7--x-x-x-x--|--5--x-5-x-x-5--x-5-x-x-5--7--|
E|--x--x--x-x-x-x--5--5--x-x-x-x--|--3--x-3-x-x-3--x-3-x-x-3--5--|

 Guitar 1
e|--17-13-13-16-13-13-15-13----13------------|--------------17----16--|
B|--------------------------17----15--15-----|--15----15--------------|
G|---------------------------------------14--|-----14----14----14-----|
A|-------------------------------------------|------------------------|
D|-------------------------------------------|------------------------|
E|-------------------------------------------|------------------------|
 Guitar 2
e|--5--5--x-x-x-x--5--5--x-x-x-x--|--3--x-3-x-x-3--x-3-x-x-3--5--|
B|--6--6--x-x-x-x--5--5--x-x-x-x--|--3--x-3-x-x-3--x-3-x-x-3--5--|
G|--7--7--x-x-x-x--5--5--x-x-x-x--|--3--x-3-x-x-3--x-3-x-x-3--5--|
A|--7--7--x-x-x-x--7--7--x-x-x-x--|--5--x-5-x-x-5--x-5-x-x-5--7--|
D|--5--5--x-x-x-x--7--7--x-x-x-x--|--5--x-5-x-x-5--x-5-x-x-5--7--|
E|--x--x--x-x-x-x--5--5--x-x-x-x--|--3--x-3-x-x-3--x-3-x-x-3--5--|

 Guitar 1
e|--20-17-19-17-16-17-13h15p13-12-13-12h13p12-10-12--|---------------19-18~--|
B|---------------------------------------------------|-----------------------|
G|---------------------------------------------------|---------16-15---------|
A|---------------------------------------------------|------15---------------|
D|---------------------------------------------------|--/13------------------|
E|---------------------------------------------------|-----------------------|
 Guitar 2
e|--5--5--x-x-x-x--5--5--x-x-x-x--|--6--x-x-x-x-6--x-x-x-x-6--x-x--|
B|--6--6--x-x-x-x--5--5--x-x-x-x--|--6--x-x-x-x-6--x-x-x-x-6--x-x--|
G|--7--7--x-x-x-x--5--5--x-x-x-x--|--7--x-x-x-x-7--x-x-x-x-7--x-x--|
A|--7--7--x-x-x-x--7--7--x-x-x-x--|--8--x-x-x-x-8--x-x-x-x-8--x-x--|
D|--5--5--x-x-x-x--7--7--x-x-x-x--|--8--x-x-x-x-8--x-x-x-x-8--x-x--|
E|--x--x--x-x-x-x--5--5--x-x-x-x--|--6--x-x-x-x-6--x-x-x-x-6--x-x--|
         

 Verso C

 Guitar 2                      
e|--x-x-6--x-x-x-x--6--6--x--6--|--6--6--6---6--6--x--4--|--4--4--4---4--4--x-----|
B|--x-x-6--x-x-x-x--6--6--x--7--|--7--7--7---7--7--x--4--|--4--4--4---4--4--x--6--|
G|--x-x-7--x-x-x-x--7--7--x--8--|--8--8--8---8--8--x--5--|--5--5--6---6--5--x--6--|
A|--x-x-8--x-x-x-x--8--8--x--8--|--8--8--8---8--8--x--6--|--6--6--6---6--6--x--6--|
D|--x-x-8--x-x-x-x--8--8--x--6--|--6--6--6---6--6--x-----|---------------------4--|
E|--x-x-6--x-x-x-x--6--6--x-----|------------------------|------------------------|
        kowaresou            na...   
 Guitar 2                      
e|---------------------6--|--6--6--6--6--6--6--x--6--|--6--6--6---6--6--x--4--|
B|--6--6--7---7--6--x--7--|--7--7--7--7--7--6--x--7--|--7--7--7---7--7--x--4--|
G|--6--6--6---6--6--x--6--|--6--6--6--6--6--6--x--8--|--8--8--8---8--8--x--5--|
A|--6--6--6---6--6--x--8--|--8--8--8--8--8--8--x--8--|--8--8--8---8--8--x--6--|
D|--4--4--4---4--4--x-----|-----------------------6--|--6--6--6---6--6--x-----|
E|------------------------|--------------------------|------------------------|
 					    sekai ni...
 Guitar 2                      
e|--4--4--4---4--4--x-----|------------------------|--6--6--x--6--x--6--x--6--|
B|--4--4--4---4--4--x--6--|--6--6--6---6--6--x--x--|--6--6--x--6--x--6--x--7--|
G|--5--5--6---6--5--x--6--|--6--6--6---6--6--x--x--|--7--7--x--8--x--7--x--8--|
A|--6--6--6---6--6--x--6--|--6--6--6---6--6--x--x--|--8--8--x--8--x--8--x--8--|
D|---------------------4--|--4--4--4---4--4--x--x--|-----------------------6--|    
E|------------------------|------------------------|--------------------------|
						     Ride on Heaven's Drive...	
 Guitar 2
e|--6--6--6---6--6--x--4--|--4--4--4---4--4--x-----|---------------------6--|
B|--7--7--7---7--7--x--4--|--4--4--4---4--4--x--6--|--6--6--7---7--6--x--7--|
G|--8--8--8---8--8--x--5--|--5--5--6---6--5--x--6--|--6--6--6---6--6--x--6--|
A|--8--8--8---8--8--x--6--|--6--6--6---6--6--x--6--|--6--6--6---6--6--x--8--|
D|--6--6--6---6--6--x-----|---------------------4--|--4--4--4---4--4--x-----|
E|------------------------|------------------------|------------------------|

 Guitar 2
e|--6--6--6--6--6--6--x--6--|--6--6--6---6--6--x--4--|--4--4--4---4--4--x-----|
B|--7--7--7--7--7--6--x--7--|--7--7--7---7--7--x--4--|--4--4--4---4--4--x--6--|
G|--6--6--6--6--6--6--x--8--|--8--8--8---8--8--x--5--|--5--5--6---6--5--x--6--|
A|--8--8--8--8--8--8--x--8--|--8--8--8---8--8--x--6--|--6--6--6---6--6--x--6--|
D|-----------------------6--|--6--6--6---6--6--x-----|---------------------4--|
E|--------------------------|------------------------|------------------------|
         atarashii...
 Guitar 2
e|------------------------|--6--6--x--6--x--6--x--6--|--6--6--6---6--6--x--4--|
B|--6--6--6---6--6--x--x--|--6--6--x--6--x--6--x--7--|--7--7--7---7--7--x--4--|
G|--6--6--6---6--6--x--x--|--7--7--x--8--x--7--x--8--|--8--8--8---8--8--x--5--|
A|--6--6--6---6--6--x--x--|--8--8--x--8--x--8--x--8--|--8--8--8---8--8--x--6--|
D|--4--4--4---4--4--x--x--|-----------------------6--|--6--6--6---6--6--x-----|   
E|------------------------|--------------------------|------------------------|
    notte...                Ride on Heaven's Drive...	
 Guitar 2
e|--4--4--4---4--4--x-----|---------------------6--|--6--6--6--6--6--6--x--6--|
B|--4--4--4---4--4--x--6--|--6--6--7---7--6--x--7--|--7--7--7--7--7--6--x--7--|
G|--5--5--6---6--5--x--6--|--6--6--6---6--6--x--6--|--6--6--6--6--6--6--x--8--|
A|--6--6--6---6--6--x--6--|--6--6--6---6--6--x--8--|--8--8--8--8--8--8--x--8--|
D|---------------------4--|--4--4--4---4--4--x-----|-----------------------6--|
E|------------------------|------------------------|--------------------------|

 Guitar 2
e|--6--6--6---6--6--x--4--|--4--4--4---4--4--x--x--|--5--5--x-x-x-x--5--5--x-x-x-x--|
B|--7--7--7---7--7--x--4--|--4--4--4---4--4--x--x--|--6--6--x-x-x-x--5--5--x-x-x-x--|
G|--8--8--8---8--8--x--5--|--5--5--6---6--5--x--x--|--7--7--x-x-x-x--5--5--x-x-x-x--|
A|--8--8--8---8--8--x--6--|--6--6--6---6--6--x--x--|--7--7--x-x-x-x--6--6--x-x-x-x--|
D|--6--6--6---6--6--x-----|------------------------|--5--5--x-x-x-x--6--6--x-x-x-x--|
E|------------------------|------------------------|--x--x--x-x-x-x--5--5--x-x-x-x--|
          hakobune   ni   notte...
 Guitar 2
e|--3--x-3-x-x-3--x-3-x-x-3--5--|-------|-------|
B|--3--x-3-x-x-3--x-3-x-x-3--5--|-------|-------|
G|--3--x-3-x-x-3--x-3-x-x-3--5--|--//--|--//--|
A|--5--x-5-x-x-5--x-5-x-x-5--7--|--//--|--//--|
D|--5--x-5-x-x-5--x-5-x-x-5--7--|-------|-------|
E|--3--x-3-x-x-3--x-3-x-x-3--5--|-------|-------|
            notte...
 Guitar 2
e|--5--5--x-x-x-x--5--5--x-x-x-x--|--3--x-x-x-x-3--x-x-x-x-3--x-x--|
B|--6--6--x-x-x-x--5--5--x-x-x-x--|--3--x-x-x-x-3--x-x-x-x-3--x-x--|
G|--7--7--x-x-x-x--5--5--x-x-x-x--|--3--x-x-x-x-3--x-x-x-x-3--x-x--|
A|--7--7--x-x-x-x--7--7--x-x-x-x--|--5--x-x-x-x-5--x-x-x-x-5--x-x--|
D|--5--5--x-x-x-x--7--7--x-x-x-x--|--5--x-x-x-x-5--x-x-x-x-5--x-x--|
E|--x--x--x-x-x-x--5--5--x-x-x-x--|--3--x-x-x-x-3--x-x-x-x-3--x-x--|

 Guitar 2
e|--x-x-3--x-x-x-x-3-5--5--|--5-~--|
B|--x-x-3--x-x-x-x-3-5--5--|--5-~--|
G|--x-x-3--x-x-x-x-3-5--5--|--7-~--|
A|--x-x-5--x-x-x-x-5-7--7--|--7-~--|   END!!!
D|--x-x-5--x-x-x-x-5-7--7--|--5-~--|
E|--x-x-3--x-x-x-x-3-5--5--|--x-~--|


  Heaven's Drive
  [L'Arc~en~Ciel]

  akitari nain da ne
  tsugi wa nani ga hoshii?
  tsumi no ishiki no nai ueta kuchimoto ni
  hone made kuwaresou sa leave me alone!

  kizuguchi wo nazotte
  aegu koe ga suki nan da
  sonna RENZU koshi no hebi ni asobarete
  torawareta kibun sa

  kowaresou na SUPIIDO agete
  tsuresatte kure
  sekai ni hi wo tsukeru no sa
  ride on heaven's drive
  asu wo ubatte warai akasou ze
  atarashii sono hakobune ni notte

  karada wa doku sarete yuku
  aa...shinigami no toriko sa
  umare sugita akumu ga bouchou shite
  daremo te ni oenai

  mabushii kurai no hizashi ni
  koi kogareterun da
  subete wo fukitobashite
  ride on heaven's drive
  michizure ni batsu wo ukeru mae ni
  atarashii sono hakobune de kimi to...
  doko made mo hikari wo sagashite
  ...sou omou mama ni mukatte itte
  anyway the world is born again

  kowaresou na SUPIIDO agete
  tsuresatte kure
  sekai ni hi wo tsukeru no sa
  ride on heaven's drive
  asu wo ubatte warai akasou ze
  atarashii sono hakobune ni notte

  ride on heaven
  saa kagi wo te ni shite kakedasu no sa
  sono hakobune ni notte
  notte...


 greetings to Ange_Kaorin!!! ^_____^
 yaguchikun@hotmail.com
Добавлено: 16.11.2013
Другие материалы по этой песне:

Страница создана 29.03.2012
http://primanota.ru/larc-en-ciel/heavens-drive-chords.htm
Привет, Гость.
Предлагаем пройти революционный курс по гитаре.
Подарок от PrimaNota.Ru, забирай!