PrimaNota.ru - самый крупный в мире бесплатный архив песенных текстов, аккордов, табулатур и нот


Lapaz - Clap Clap - Freeletics Song - таба, видео

Регистрация Запомнить меня
Войти через:  Facebook Google Twitter Vk Yandex Mail.ru

Lapaz - Clap Clap - Freeletics Song - таба, видео

Печатать
Просмотров: 68
-------------------------------------------------------------------------------
                             Clap Clap (Freeletics) - Lapaz
-------------------------------------------------------------------------------
Tabbed by: KingNothing91

Tuning: Standard


Repeat from the beginning to the end:

    x                          x
e|--------------10-------------------------10-------------|
B|--8----11--8------8--11--10--8----11--8------8--11--10--|
G|--------------------------------------------------------|
D|--------------------------------------------------------|
A|--------------------------------------------------------|
E|--------------------------------------------------------|

    x                             x
e|----------------10----------------------------10--------------|
B|--------11--------------10------------10------------------10--|
G|--10--------10------10------10------------------------10------|
D|--------------------------------12--------12------12----------|
A|--------------------------------------------------------------|
E|--------------------------------------------------------------|

    x                          x
e|--------------10-------------------------10-------------|
B|--8----11--8------8--11--10--8----11--8------8--11--10--|
G|--------------------------------------------------------|
D|--------------------------------------------------------|
A|--------------------------------------------------------|
E|--------------------------------------------------------|

    x                             x
e|----------------10----------------------------10----------10--|
B|--------11--------------10------------10--------------10------|
G|--10--------10------10------10--11--------11------11----------|
D|--------------------------------------------------------------|
A|--------------------------------------------------------------|
E|--------------------------------------------------------------|


************************************
| x   staccato
************************************
Добавлено: 27.06.2016
Другие материалы по этой песне:
  • Аккорды и текст

Страница создана 27.06.2016
http://primanota.ru/lapaz/clap-clap-freeletics-song-chords.htm
Привет, Гость.
Предлагаем пройти революционный курс по гитаре.
Подарок от PrimaNota.Ru, забирай!