PrimaNota.ru - самый крупный в мире бесплатный архив песенных текстов, аккордов, табулатур и нот


Lao Lang - Tong Zhuo De Ni - таба, видео

Регистрация Запомнить меня
Войти через:  Facebook Google Twitter Vk Yandex Mail.ru

Lao Lang - Tong Zhuo De Ni - таба, видео

Печатать
Просмотров: 111
INTRO

 Dsus2            Dsus2            F#m              Asus2
|---------0------|---------0------|---------2------|----------------|
|------3-----3---|------3-----3---|------2-----2---|---------0------|
|---2-----------2|---2-----------2|---2-----------2|------2-----2---|
|0---------------|0---------------|4---------------|---2-----------2|
|----------------|----------------|----------------|0--------~------|
|----------------|----------------|----------------|----------------|

 G6               Gm               Asus4            A (5)
|---------0------|---------3------|---------5------|--5-------------|
|------3-----3---|------3-----3---|------5-----5---|--5-------------|
|---4-----------4|---3-----------3|---7-----------7|--6-------------|
|5---------------|5---------------|7---------------|--7-------------|
|----------------|----------------|----------------|----------------|
|----------------|----------------|----------------|----------------|


VERSE 1

 Dsus2            F#m              G6               Asus4
|---------0------|---------2------|---------0------|---------5------|
|------3-----3---|------2-----2---|------3-----3---|------5-----5---|
|---2-----------2|---2-----------2|---4-----------4|---7-----------7|
|0---------------|4---------------|5---------------|7---------------|
|----------------|----------------|----------------|---------~------|
|----------------|----------------|----------------|----------------|
 明 天 你  是 否 会 想       起       昨 天 你  写 的 日 记
 老 师 们  都 已 想 不       起       猜 不 出  问 题 的 你

 Dsus2            G6/A             G6       E7sus4  Dsus2
|---------0------|----------------|----------------|---------0------|
|------3-----3---|---------3------|------3--------3|------3-----3---|
|---2-----------2|------4-----4---|---4--------4---|---2-----------2|
|0---------------|---5-----------5|5--------2------|0---------------|
|----------------|0---------------|----------------|---------~------|
|----------------|----------------|----------------|----------------|
 明 天 你  是 否 还 惦       记       曾 经 最  爱 哭 得 你
 我 也 是  偶 然 翻 相       片       才 想 起  同 桌 的 你

CHORUS 1

 Dsus2            Bm               Em (3)           Bm7
|---------0------|---------2------|---------3------|----------------|
|------3-----3---|------3-----3---|------5-----5---|---------3------|
|---2-----------2|---4-----------4|---4-----------4|------2-----2---|
|0---------------|4---------------|5---------------|---4-----------4|
|----------------|----------------|----------------|2--------~------|
|----------------|----------------|----------------|----------------|
 谁 娶 了  多 愁 善 感    的 你       谁 看 了  你 的 日 记


 F#m              A (5)            Asus4            Dsus2
|---------2------|---------5------|---------5------|---------0------|
|------2-----2---|------5-----5---|------5-----5---|------3-----3---|
|---2-----------2|---6-----------6|---7-----------7|---2-----------2|
|4---------------|7---------------|7---------------|0---------------|
|----------------|----------------|----------------|---------~------|
|----------------|----------------|----------------|----------------|
 谁 把 你  的 长 发 盘       起       谁 给 你  做 的 嫁 衣


VERSE 2

 Dsus2            F#m              G6               Asus4
|---------0------|---------2------|---------0------|---------5------|
|------3-----3---|------2-----2---|------3-----3---|------5-----5---|
|---2-----------2|---2-----------2|---4-----------4|---7-----------7|
|0---------------|4---------------|5---------------|7---------------|
|----------------|----------------|----------------|---------~------|
|----------------|----------------|----------------|----------------|
 你 从 前  总 是 很 小       心       问 我 借  半 块 橡 皮
 那 时 候  天 总 是 很       蓝       日 子 总  过 得 太 慢

 Dsus2            G6/A             G6       E7sus4  Dsus2
|---------0------|----------------|----------------|---------0------|
|------3-----3---|---------3------|------3--------3|------3-----3---|
|---2-----------2|------4-----4---|---4--------4---|---2-----------2|
|0---------------|---5-----------5|5--------2------|0---------------|
|----------------|0---------------|----------------|---------~------|
|----------------|----------------|----------------|----------------|
 你 也 曾  无 意 中 说       起       喜 欢 和  我 在 一 起
 你 总 说  华 业 遥 遥    无 期       转 眼 就  各 奔 东 西

CHORUS 2

 Dsus2            Bm               Em (3)           Bm
|---------0------|----------------|---------3------|---------2------|
|------3-----3---|---------3------|------5-----5---|------3-----3---|
|---2-----------2|------4-----4---|---4-----------4|---4-----------4|
|0---------------|---4-----------4|5---------------|4---------------|
|----------------|2---------------|----------------|---------~------|
|----------------|----------------|----------------|----------------|
 谁 遇 到  多 愁 善 感    的 你       谁 安 慰  爱 哭 的 你


 F#m              A (5)            Asus4            Dsus2
|---------2------|---------5------|---------5------|---------0------|
|------2-----2---|------5-----5---|------5-----5---|------3-----3---|
|---2-----------2|---6-----------6|---7-----------7|---2-----------2|
|4---------------|7---------------|7---------------|0---------------|
|----------------|----------------|----------------|---------~------|
|----------------|----------------|----------------|----------------|
 谁 看 了  我 给 你 写    的 信       谁 把 它  丢 在 风 里

--- GUITAR SOLO


VERSE 3

 Dsus2            F#m              G6               Asus4
|---------0------|---------2------|---------0------|---------5------|
|------3-----3---|------2-----2---|------3-----3---|------5-----5---|
|---2-----------2|---2-----------2|---4-----------4|---7-----------7|
|0---------------|4---------------|5---------------|7---------------|
|----------------|----------------|----------------|---------~------|
|----------------|----------------|----------------|----------------|
 从 前 的  日 子 都 远       去       我 也 将  有 我 的 妻

 Dsus2            G6/A             G6       E7sus4  Dsus2
|---------0------|----------------|----------------|---------0------|
|------3-----3---|---------3------|------3--------3|------3-----3---|
|---2-----------2|------4-----4---|---4--------4---|---2-----------2|
|0---------------|---5-----------5|5--------2------|0---------------|
|----------------|0---------------|----------------|---------~------|
|----------------|----------------|----------------|----------------|
 我 也 会  给 她 看 相       片       给 她 讲  同 桌 的 你

CHORUS 3

 Dsus2            Bm               Em (3)           Bm
|---------0------|----------------|---------3------|---------2------|
|------3-----3---|---------3------|------5-----5---|------3-----3---|
|---2-----------2|------4-----4---|---4-----------4|---4-----------4|
|0---------------|---4-----------4|5---------------|4---------------|
|----------------|2---------------|----------------|---------~------|
|----------------|----------------|----------------|----------------|
 谁 娶 了  多 愁 善 感    的 你       谁 安 慰  爱 哭 的 你

 F#m              A (5)            Asus4            Dsus2
|---------2------|---------5------|---------5------|---------0------|
|------2-----2---|------5-----5---|------5-----5---|------3-----3---|
|---2-----------2|---6-----------6|---7-----------7|---2-----------2|
|4---------------|7---------------|7---------------|0---------------|
|----------------|----------------|----------------|---------~------|
|----------------|----------------|----------------|----------------|
 谁 把 你  的 长 发 盘       起       谁 给 你  做 的 嫁 衣


FINISH (strum)

 Dsus2            Bm               Em               Bm7
|---------0------|---------2------|---------0------|----------------|
|------3-----3---|------3-----3---|------0-----0---|---------3------|
|---2-----------2|---4-----------4|---0-----------0|------2-----2---|
|0---------------|4---------------|2---------------|---4-----------4|
|----------------|----------------|----------------|2---------------|
|----------------|----------------|----------------|----------------|
 啦 啦 啦  啦 啦 啦 啦       啦       啦    啦  啦 啦 啦 啦

 F#m              A (5)            Asus4            Dsus2    E
|---------2------|---------5------|---------5------|----------------|
|------2-----2---|------5-----5---|------5-----5---|------3--------0|
|---2-----------2|---6-----------6|---7-----------7|---2--------1---|
|4---------------|7---------------|7---------------|0--------2------|
|----------------|----------------|----------------|----------------|
|----------------|----------------|----------------|----------------|
 啦    啦  啦 啦 啦 啦       啦       啦 啦 啦  啦 啦 啦 啦

 E                C#m              F#m              C#m7
|---------0------|---------4------|---------2------|----------------|
|------0-----0---|------5-----5---|------2-----2---|---------5------|
|---1-----------1|---6-----------6|---2-----------2|------4-----4---|
|2---------------|6---------------|4---------------|---6-----------6|
|----------------|----------------|----------------|4---------------|
|----------------|----------------|----------------|----------------|
 啦 啦 啦  啦 啦 啦 啦       啦       啦    啦  啦 啦 啦 啦

 G#m              B (7)            Bsus4 (7)        Bsus4 (7)
|---------4------|---------7------|---------7------|-7-------o------|
|------4-----4---|------7-----7---|------7-----7---|-7--------------|
|---4-----------4|---8-----------7|---9-----------9|-9--------------|
|6---------------|9---------------|9---------------|-9--------------|
|----------------|----------------|----------------|----------------|
|----------------|----------------|----------------|----------------|
 啦    啦  啦 啦 啦 啦       啦       啦 啦 啦  啦 啦 啦 啦

 E (9)
|-12-------------|
|-9--------------|
|-9--------------|
|-9--------------|
|----------------|
|----------------|
 啦
Добавлено: 27.08.2015
Другие материалы по этой песне:
  • Аккорды и текст

Страница создана 27.08.2015
http://primanota.ru/lao-lang/tong-zhuo-de-ni-chords.htm
Привет, Гость.
Предлагаем пройти революционный курс по гитаре.
Подарок от PrimaNota.Ru, забирай!