PrimaNota.ru - самый крупный в мире бесплатный архив песенных текстов, аккордов, табулатур и нот


Lao Che - Prad Staly Prad Zmienny - бас-таба, видео

Регистрация Запомнить меня
Войти через:  Facebook Google Twitter Vk Yandex Mail.ru

Lao Che - Prad Staly Prad Zmienny - бас-таба, видео

Печатать
Просмотров: 163
tabbed by : pavelardo

Bass wchodzi w 0:05

Intro
G|-------------------------------------------|
D|-------------------------------------------|
A|-5-5-875-875------------8-8-8-8\--------33-|
E|-------------6-6-6-6-89---------5-5-5-5----|

G|------------------------------------------------|
D|------------------------------------------------|
A|-5-5-875-875------------8-8-8-8/1212-1010-88-77-|
E|-------------6-6-6-6-89-------------------------|

Refren
G|-------------------------------------------|
D|-------------------------------------------|
A|-5-5-875-875------------8-8-8-8\--------33-|
E|-------------6-6-6-6-89---------5-5-5-5----|

G|------------------------------------------------|
D|------------------------------------------------|
A|-5-5-875-875------------8-8-8-8/1212-1010-88-77-|
E|-------------6-6-6-6-89-------------------------|

Przejście                  x4
G|---------------------------|
D|---------------------------|
A|-5-5\10-1212-10-1212/-5-5/-|
E|---------------------------|

Zwrotka                     x4
G|---------------------------|
D|---------------------------|
A|-5-5\10-1212-10-1212/-5-5/-|
E|---------------------------|

Refren                                       x2
G|-------------------------------------------|
D|-------------------------------------------|
A|-5-5-875-875------------8-8-8-8\--------33-|
E|-------------6-6-6-6-89---------5-5-5-5----|

G|------------------------------------------------|
D|------------------------------------------------|
A|-5-5-875-875------------8-8-8-8/1212-1010-88-77-|
E|-------------6-6-6-6-89-------------------------|

Przejście
G|-----|
D|-----|
A|-5~~-|
E|-----|

Zwrotka 2                    x4
G|---------------------------|
D|---------------------------|
A|-5-5\10-1212-10-1212/-5-5/-|
E|---------------------------|

Refren                                       x2
G|-------------------------------------------|
D|-------------------------------------------|
A|-5-5-875-875------------8-8-8-8\--------33-|
E|-------------6-6-6-6-89---------5-5-5-5----|

G|------------------------------------------------|
D|------------------------------------------------|
A|-5-5-875-875------------8-8-8-8/1212-1010-88-77-|
E|-------------6-6-6-6-89-------------------------|

Końcówka                     x8
G|---------------------------|
D|---------------------------|
A|-5-0\10-1212-10-1212/-5-0/-|
E|---------------------------|
Добавлено: 16.05.2012
Вам также может быть интересно:
Другие материалы по этой песне:
  • Аккорды и текст

Страница создана 16.05.2012
http://primanota.ru/lao-che/prad-staly-prad-zmienny-chords.htm
Привет, Гость.
Предлагаем пройти революционный курс по гитаре.
Подарок от PrimaNota.Ru, забирай!