PrimaNota.ru - самый крупный в мире бесплатный архив песенных текстов, аккордов, табулатур и нот


Lao Che - Klucznik Rozdziobią Nas Kruki I Wrony - аккорды и текст, видео

Регистрация Запомнить меня
Войти через:  Facebook Google Twitter Vk Yandex Mail.ru

Lao Che - Klucznik Rozdziobią Nas Kruki I Wrony - аккорды и текст, видео

Печатать
Просмотров: 116
Klucznik Rozdziobią Nas Kruki I Wrony
Lao Che
VERSE/CHORUS (through the whole song)
C|a|C|a

VERSE (solo in background)
E|-------3---------------|
B|---3h5------3h5p3------|
G|------------------2----|
D|-----------------------|
A|-----------------------|
E|-----------------------|

SOLO PART (after the second verse)
E|-----------------------|
B|---6--5------6-5p3h5---|
G|-----------------------|
D|-----------------------|
A|-----------------------|
E|-----------------------|
Добавлено: 13.11.2015
Другие материалы по этой песне:
  • Аккорды и текст

Страница создана 13.11.2015
http://primanota.ru/lao-che/klucznik-rozdziobia-nas-kruki-i-wrony-chords.htm
Привет, Гость.
Предлагаем пройти революционный курс по гитаре.
Подарок от PrimaNota.Ru, забирай!