PrimaNota.ru - самый крупный в мире бесплатный архив песенных текстов, аккордов, табулатур и нот


Lao Che - Hydropieklowstapienie - бас-таба, видео

Регистрация Запомнить меня
Войти через:  Facebook Google Twitter Vk Yandex Mail.ru

Lao Che - Hydropieklowstapienie - бас-таба, видео

Печатать
Просмотров: 165
Уроки эстрадного вокала в Санкт-Петербурге
tabbed by Pavelardo

Intro
G|---------|
D|---------|
A|-----5-4-|
E|-2-5-----|

Zwrotka 
G|-----------|
D|-----------|
A|-----5-4p2-|
E|-2-5-------|

Zwrotka część II
G|-----------------------------------------|
D|-----------------------------------------|
A|-----------------------------------------|
E|-222222212-444444434-555555555-444444444-|

Refren
G|-----------------------------------------|
D|-----------------------------------------|
A|-----------------------------------------|
E|-222222212-444444434-555555555-444445454-|

Przejście i zwrotka 2 
G|-----------|
D|-----------|
A|-----5-4p2-|
E|-2-5-------|

Refren
G|-----------------------------------------|
D|-----------------------------------------|
A|-----------------------------------------|
E|-222222212-444444434-555555555-444445454-|

Przejście
G|---------|
D|---------|
A|-----5-4-|
E|-2-5-----|

Zwrotka 
G|-----------|
D|-----------|
A|-----5-4p2-|
E|-2-5-------|

Zwrotka część II
G|-----------------------------------------|
D|-----------------------------------------|
A|-----------------------------------------|
E|-222222212-444444434-555555555-444444444-|

Refren
G|-----------------------------------------|
D|-----------------------------------------|
A|-----------------------------------------|
E|-222222212-444444434-555555555-444445454-|

Końcówka
G|---------|
D|---------|
A|-----5-4-|
E|-2-5-----|

Добавлено: 23.05.2012
Другие материалы по этой песне:
  • Аккорды и текст

Страница создана 23.05.2012
http://primanota.ru/lao-che/hydropieklowstapienie-chords.htm
Привет, Гость.
Предлагаем пройти революционный курс по гитаре.
Подарок от PrimaNota.Ru, забирай!