PrimaNota.ru - самый крупный в мире бесплатный архив песенных текстов, аккордов, табулатур и нот


Lantlos - Jade Fields - таба, видео

Регистрация Запомнить меня
Войти через:  Facebook Google Twitter Vk Yandex Mail.ru

Lantlos - Jade Fields - таба, видео

Печатать
Просмотров: 160
Уроки эстрадного вокала в Санкт-Петербурге
-------------------------------------------------------------------------------
                        Melting Sun IV: Jade Fields - Lantlôs
-------------------------------------------------------------------------------
Tabbed by: Will
E-mail: will_tomlin@hotmail.com

Tuning: Drop B (B F# B E G# C#)

clean intro with lots of reverb and a delay. second guitar plays this underneath.alternate between 23 and 22
e|------------------------9-9------------------------------------------------|
B|---------------------------------------------------------------22--22------|
G|-------------------11-9--9-----------------------23-23-23-23-23--23----=---|
D|-----12-11-12--7-9---------------------------------------------------------|
A|---------------------------------------------------------------------------|
E|---0---------0-------------------------------------------------------------|

Distored guitar tremelo these notes. you can play as a 3 note power chords
e|---------------------------------------------------------------------------|
B|---------------------------------------------------------------------------|
G|---------------------------------------------------------------------------|
D|------------------------------------------11--7--11--0---------------------|
A|------------------------------------------11--7--11--0---------------------|
E|--11----7----11----0----------------------11--7--11--0---------------------|

breakdown section
e|---------------------------------------------------------------------------|
B|---------------------------------------------------------------------------|
G|---------------------------------------------------------------------------|
D|---------------------------------------------------------------------------|
A|---------------------------------------------------------------------------|
E|----0-h7-h11---0-h7-h11-0-h7-h11---0-h7-h11-0-h7-h11-0-h7-h11-0-h7-h11-----|

All I have so far, its repeats itself with the main tremelo picking for the most part.
e|---------------------------------------------------------------------------|
B|---------------------------------------------------------------------------|
G|---------------------------------------------------------------------------|
D|---------------------------------------------------------------------------|
A|---------------------------------------------------------------------------|
E|---------------------------------------------------------------------------|

e|---------------------------------------------------------------------------|
B|---------------------------------------------------------------------------|
G|---------------------------------------------------------------------------|
D|---------------------------------------------------------------------------|
A|---------------------------------------------------------------------------|
E|---------------------------------------------------------------------------|

e|---------------------------------------------------------------------------|
B|---------------------------------------------------------------------------|
G|---------------------------------------------------------------------------|
D|---------------------------------------------------------------------------|
A|---------------------------------------------------------------------------|
E|---------------------------------------------------------------------------|

e|---------------------------------------------------------------------------|
B|---------------------------------------------------------------------------|
G|---------------------------------------------------------------------------|
D|---------------------------------------------------------------------------|
A|---------------------------------------------------------------------------|
E|---------------------------------------------------------------------------|

e|---------------------------------------------------------------------------|
B|---------------------------------------------------------------------------|
G|---------------------------------------------------------------------------|
D|---------------------------------------------------------------------------|
A|---------------------------------------------------------------------------|
E|---------------------------------------------------------------------------|


************************************

| /   slide up
| \   slide down
| h   hammer-on
| p   pull-off
| ~   vibrato
| +   harmonic
| x   Mute note
| b   Bend
| pb  Pre-bend
| br  Bend release
| pbr Pre-bend release
| brb Bend release bend

************************************
Добавлено: 28.06.2015
Другие материалы по этой песне:
  • Аккорды и текст

Страница создана 28.06.2015
http://primanota.ru/lantlos/jade-fields-chords.htm
Привет, Гость.
Предлагаем пройти революционный курс по гитаре.
Подарок от PrimaNota.Ru, забирай!