PrimaNota.ru - самый крупный в мире бесплатный архив песенных текстов, аккордов, табулатур и нот


Lantietam - Intro - таба, видео

Регистрация Запомнить меня
Войти через:  Facebook Google Twitter Vk Yandex Mail.ru

Lantietam - Intro - таба, видео

Печатать
Просмотров: 119
Уроки эстрадного вокала в Санкт-Петербурге
-------------------------------------------------------------------------------
                             INTRO - L'antietam
-------------------------------------------------------------------------------
Tabbed by: Raphael Bastek
Email: raf_gpm@yahoo.com

Band website: http://www.myspace.com/antietamnh
Song is off of Family.

Tuning: Standard
h = hammer-on

e|-15-------12-------12h13p12---------------------------------------------------|
B|----13-------13-------------13----------13----13------------------------------|
G|-------14-------14-------------14----14----14----14---------------------------|
D|----------------------------------15----------------14---14-14---14---14-14---|
A|-----------------------------------------------------0----0--0----0----0--0---|
E|-----------------------------------------------------0----0--0----0----0--0---|

That's it for the lead guitar. Repeats a bunch and it's over.
Добавлено: 29.04.2012
Вам также может быть интересно:
Другие материалы по этой песне:
  • Аккорды и текст

Страница создана 29.04.2012
http://primanota.ru/lantietam/intro-chords.htm
Привет, Гость.
Предлагаем пройти революционный курс по гитаре.
Подарок от PrimaNota.Ru, забирай!