PrimaNota.ru - самый крупный в мире бесплатный архив песенных текстов, аккордов, табулатур и нот


Lanstrumpf Pippi - Butterflies - таба, видео

Регистрация Запомнить меня
Войти через:  Facebook Google Twitter Vk Yandex Mail.ru

Lanstrumpf Pippi - Butterflies - таба, видео

Печатать
Просмотров: 68
Remember Pippi Lanstrumpf?

This fresh tune appeared in a couple of chapters of 
the original 60's swedish TV series "Pippi Lanstrumpf". 
I liked it very much.

Pippi an her friends were walking and kidding around 
the countryside while singing this nice kiddy tune about 
butterflies, flowers, grass, ....
Only an accoustic guitar and a flute were accompanying their 
voices, I think. Anyway, all Pippi Lanstrumf's 
soundtrack arrangements were very simple but funny. 

I tried to aproximate the accoustic guitar background 
and the solo voices with my guitar. Then I wrote this down 
using Guitar Pro and exporting it in ASCII format (I'm sorry,
there are'nt a lot of indications)

Feel free to modify, improve (sure) and enjoy it.


---
Marcel Massana  massana@iies.es>
from Catalonia (a little football stadium between 
Andorra, France and Spain)



                      Pippi Lanstrumf's butterflies


TIME SIGNATURE: 6/8
KEY SIGNATURE: E
TEMPO: 140 BPM aprox


                                                             
E||------------4--|--7--------4--------|--4-----4-----------|
B||---------------|--------5--------7--|-----------5-----5--|
G||---------------|-----4--------4-----|-----4--------4-----|
D||---------------|-----------6--------|-----------6--------|
A||---------------|--------------------|--------------------|
E||---------------|--0-----------------|--0-----------------|


                                                               
-----------------2--|--5--------------5--|--4--------5-----7--|
--4-----3--4--------|-----2-----------2--|-----0--------0-----|
-----2--------2-----|--------4h-2--4-----|--------1-----------|
-----------4--------|--------------------|--2-----------------|
--2-----------------|--------------------|--------------------|
--------------------|--2-----------------|-----------2-----4--|


                                                              
--9--------5-----5--|--4-----4--2-----2--|--0-------------0--|
-----0--------5-----|-----0--------0-----|--------0----------|
--------6-----6-----|-----1--------2-----|-----1-------------|
--------------------|--------------------|-----------2-------|
-----------7--------|-----------2--------|-------------------|
--5-----------------|--0-----------------|--0----------------|


                                                               
--2--------------2--|--4--------0-----4--|--5--------4--------|
--------0--4--------|--------0-----0-----|--------2--------0--|
-----2--------------|-----1--------------|-----2--------1-----|
--------------4-----|--2-----------------|--------------------|
--2-----------------|--------------------|--4--------2--------|
-----------2--------|-----------0--------|--------------------|


                                                               
--2--------------2--|--4--------5-----7--|--9--------5-----5--|
-----4h-2-----------|--------0-----0-----|-----0--------5-----|
-----------4h-2-----|-----1--------------|--------6-----6-----|
--------------------|--2-----------------|--------------------|
-----------------2--|--------------------|-----------7--------|
--2-----------------|-----------2-----4--|--5-----------------|


                                  
--4------2------|--0------------||
--0------0------|--0------------||
--1------2------|--1------------||
--2------1------|--2------------||
---------2------|--2------------||
----------------|--0------------||


     
Добавлено: 30.10.2013
Другие материалы по этой песне:
  • Аккорды и текст

Страница создана 30.10.2013
http://primanota.ru/lanstrumpf-pippi/butterflies-chords.htm
Привет, Гость.
Предлагаем пройти революционный курс по гитаре.
Подарок от PrimaNota.Ru, забирай!