PrimaNota.ru - самый крупный в мире бесплатный архив песенных текстов, аккордов, табулатур и нот


Lanimalerie - N°020620142 - таба, видео

Регистрация Запомнить меня
Войти через:  Facebook Google Twitter Vk Yandex Mail.ru

Lanimalerie - N°020620142 - таба, видео

Печатать
Просмотров: 40
Уроки эстрадного вокала в Санкт-Петербурге
Chords :

 G#m       E        B        F#
|-4-|    |-0-|    |-2-|    |-2-|
|-4-|    |-0-|    |-4-|    |-2-|
|-4-|    |-1-|    |-4-|    |-3-|
|-6-|    |-2-|    |-4-|    |-4-|
|-6-|    |-2-|    |-2-|    |-4-|
|-4-|    |-0-|    |---|    |-2-|


1st part

G#m  E    B   F#   G#m E    B
|----0---|--------|----0-2-|--------|
|0-------|4-----2-|0-------|4-------|
|--------|--------|--------|--------|
|--------|--------|--------|--------|
|--------|--------|--------|--------|
|--------|--------|--------|--------|



2nd part

 G#m     E        B       F#
|----4-------0---|------------2---|
|--4---4---0---0-|----4-----2---2-|
|4-------1-------|--4---4-3-------|
|----------------|4---------------|
|----------------|----------------|
|----------------|----------------|



3rd part

 G#m     E        B       F#       G#m     E        B
|4-2-----2-------|----------------|----------------|-------------|
|----5-4---5-4-2-|5-4-2---4-2-----|----------2---2-|4------------|
|----------------|------4-----4-3-|1-3-4-3-4---4---|-------------|
|----------------|----------------|----------------|-------------|
|----------------|----------------|----------------|-------------|
|----------------|----------------|----------------|-------------|
Добавлено: 20.12.2015
Другие материалы по этой песне:
  • Аккорды и текст

Страница создана 20.12.2015
http://primanota.ru/lanimalerie/n020620142-chords.htm
Привет, Гость.
Предлагаем пройти революционный курс по гитаре.
Подарок от PrimaNota.Ru, забирай!