PrimaNota.ru - самый крупный в мире бесплатный архив песенных текстов, аккордов, табулатур и нот


Lang Peter - Red Meat On The Road - таба, видео

Регистрация Запомнить меня
Войти через:  Facebook Google Twitter Vk Yandex Mail.ru

Lang Peter - Red Meat On The Road - таба, видео

Печатать
Просмотров: 100
Уроки эстрадного вокала в Санкт-Петербурге
Red Meat On The Road
by Peter Lang
 
Album: The Thing At The Nursery Room Window
 
Legend:  h = hammer on      p = pull off
         ^ = down stroke    v = up stroke
         / = slide up       o = harmonics
 
Tuning: CGCGCD (I think the recording is tuned down further by one
semi-tone)
 
 
This is a great track from a great guitar album. My tab is fairly close
to the recording, though the piece also allows for variation in picking
patterns. You should listen to the track to get the tempo and to
understand this tab better. Sorry that it isn't divided into bars but
it's not a difficult one to learn anyway.
 
For anyone interested I did a few more tabs for tracks on this album but
they would need a lot of modification for me to fit them to
's mailing specifications, so I won't post them to the site (well,
unless I've got nothing else to do!) but I would be willing to send them
as attachments in emails to people.
 
Hope you find this tab useful. Thanks! (james_calton@yahoo.com)

Section A (Include notes in brackets when repeated later):
 
|------2h3p2p0------------2----------2----2-------|
|-----------------0h2----------0------------------|
|---------------------------------0---------------|
|-----(0)-----(0)---------0------------------0----|
|-------------------------------------------------|
|--0-----(0)---------(0)-----0---------0----------|
 

|-----2h3p2p0----------2-------2---2-------0------|
|---------------0h2--------0-----------0----------|
|------------------------0-------0---0-------0----|
|----(0)-----(0)-------0-----------------0--------|
|-------------------------------------------------|
|--0----(0)--------(0)-------0-----0--------------|
 
Section B:
 
|--------5---5h7p5-------5----------5---5h7p5--------0------|
|----5---------------5----------5---------------5--------0--|
|------------------5----------------------------------------|
|----5-----5---------------5----5-----5-------5--------0----|
|-----------------------------------------------------------|
|--5---5-----5---------5------5---5-----5----------0--------|
 
Repeat A, then Section C:
 
|--------7---7h9p7-------7----------5--------5h7p5-------0---|
|----7---------------7----------5-------5------------5-----0-|
|---------------------------------5-------5--------5---------|
|----7-----7-------7-------7---------------------------------|
|------------------------------------------------------------|
|--7---7-----7---------7------5-------5------5---------5-----|
 

|---3p2-----0---------------------0------------|
|----------------0------2-/-4-----------0------|
|*------------------0----------------------0--*|
|*-------0---------------------0--------------*|
|----------------------------------------------|
|---0---------0---------0------------0---------|
 
Section D:
 
    ^  v  v  v  ^                      ^  v  v  v  ^
|---3--3--2--0--0---5---------5-----|--3--3--2--0--0---|
|---0--0--0--0--0--------4----------|--0--0--0--0--0---|
|*--5--5--5--5--5------5--------5--*|--5--5--5--5--5---|
|*--0--0--0--0--0------------------*|--0--0--0--0--0---|
|-----------------------------------|------------------|
|-------------------0-------0-------|------------------|
 

|--3-------3---3--------3-------3----------3----3-------3----|
|------2-----2------2-------2---------2-------------2--------|
|----3----------------3-------3-------------------2----------|
|-------------------------------------2------2------------2--|
|--3-----3--------3-------3--------2-----2------2-----2------|
|------------------------------------------------------------|
 
Repeat section B, then:

Section E:
 
|--10--------14----(14)--------10-----10p9----0--------0-----|
|--------0----------------0------------------------0---------|
|------0---------0------0----------0--------0--------0-------|
|------------------------------------------------------------|
|------------------------------------------------------------|
|--0-------0--------0--------0--------0----------0--------0--|
 
Repeat Section B and Section E again (with bracketed note on 17th fret)
Repeat Section C, staying at 7th fret, and then with second part played 4
times, then:
 
Section F:                          *
                                    *
|------5--------5--------5--------5----------5----------5---|
|-----------0--------0--------0----------0----------0-------|
|*-----0------0--------0--------0----------0----------0-----|
|*-----------------------------------4h5--------4h5---------|
|---5-----5--------4--------4-------------------------------|
|-----------------------------------------------------------|
 

|-----5--------5---|-----5--------5--|---------5-----------|
|----------0-------|----------0------|-----0--------0---0--|
|------------0----*|------------0----|*------0--------0----|
|--4-----4--------*|--4-----0--------|*--4-----------------|
|-----0------------|-----0-----------|------------0--------|
|------------------|-----------------|---------------------|
 
   
                       repeat last part to here |
                                                |
|--------4-------------3---------------3-------------------|
|----0-------0---0----------0------0-------0---0-----------|
|------0-------0-------0------0--------------0------------*|
|--3----------------2------------2-------2--------2-/-4---*|
|----------0--------------0----------0---------------------|
|----------------------------------------------------------|
 

|---------0--0-------0--------0--------0--------0-------0------|
|-----0----------0--------0-------0---------0-------0-------0--|
|-------0----------0--------0-----------------0-------0--------|
|------------0-------0----------0------0--------0---------0----|
|-0h2------0---0--------0-----------0-----0-------0------------|
|--------------------------------------------------------------|
 
 
Repeat all from Section A to asterisk on Section F, then:
 
|--------5---------5---------5-------------o12---------|
|----0---------0---------0---------0-------o12---------|
|------0---------0---------4---------4-----o12---------|
|--5---------5---------5---------5---------o12---------|
|------------------------------------------o12---------|
|------------------------------------------o12---------|
 
 
James Calton, Sheffield, England, 2004.

________________________________________________________________________________
     
Добавлено: 27.08.2013
Другие материалы по этой песне:
  • Аккорды и текст

Страница создана 27.08.2013
http://primanota.ru/lang-peter/red-meat-on-the-road-chords.htm
Привет, Гость.
Предлагаем пройти революционный курс по гитаре.
Подарок от PrimaNota.Ru, забирай!