PrimaNota.ru - самый крупный в мире бесплатный архив песенных текстов, аккордов, табулатур и нот


Landevir - Viaje Sin Retorno - таба, видео

Регистрация Запомнить меня
Войти через:  Facebook Google Twitter Vk Yandex Mail.ru

Landevir - Viaje Sin Retorno - таба, видео

Печатать
Просмотров: 95
---------0-------------0---------------0-------------0---
-------3---3-------------------------3---3---------------
-----0-------0-------0-------------0-------0-------0-----
---2-----------2---2-------------2-----------2---2-------
-3---------------3------------3---------------3----------
---------------------------------------------------------


----------0-------------0------------0-------------0-
--------0---0----------------------0---0-------------
------0-------0-------0----------0-------0-------0---
----2-----------2---2----------2-----------2---2-----
--2---------------2----------2---------------2-------
-----------------------------------------------------

(lo anterior se repite casi toda la canción)


--------------------3-5--5/7/5--3---5/7---------3-5-7-8-10-12-14-
-------3-3/5----4/5---------------5-----------5------------------
---3/4-----------------------------------------------------------
-----------------------------------------------------------------
-----------------------------------------------------------------
-----------------------------------------------------------------


(este se repite a lo largo de la canción)
----//7--7-7-7--5---5--------------//7--7-7-7--5---5-------------
------------------8---8-7-8--7-5-----------------8---8-7-8--7-5--
-----------------------------------------------------------------
-----------------------------------------------------------------
-----------------------------------------------------------------
-----------------------------------------------------------------


----//7-5-5-7---5---------------//7-5-5-7---5--------------------
--------------8---7-5-5-------------------8---7-5-5--------------
-----------------------------------------------------------------
-----------------------------------------------------------------
-----------------------------------------------------------------
-----------------------------------------------------------------
Добавлено: 18.03.2016
Другие материалы по этой песне:
  • Аккорды и текст

Страница создана 18.03.2016
http://primanota.ru/landevir/viaje-sin-retorno-chords.htm
Привет, Гость.
Предлагаем пройти революционный курс по гитаре.
Подарок от PrimaNota.Ru, забирай!