PrimaNota.ru - самый крупный в мире бесплатный архив песенных текстов, аккордов, табулатур и нот


Landevir - Tu Serás La Luz - таба, видео

Регистрация Запомнить меня
Войти через:  Facebook Google Twitter Vk Yandex Mail.ru

Landevir - Tu Serás La Luz - таба, видео

Печатать
Просмотров: 130
Уроки эстрадного вокала в Санкт-Петербурге
bueno, aki una cancion a peticion de Ace roga:


Espero la disfruten


E||-----3----------3--------|-----2-------------3p-2p-0--|
B||--------3----------3-----|--------3---------------------|
G||----------------------0--|----------------0-------------|
D||-------------------------|--0---------------------------|
A||--3----------------------|------------------------------|
E||-----------3-------------|-----------0------------------|


-----3----------3--------|------------------------|
--------3----------3-----|-----------3------------|
----------------------0--|-----------0------------|
-------------------------|--------2--2------------|
--3----------------------|-----2------------------|
-----------3-------------|--0---------------------|

-----3----------3--------|-----2-------------3p-2p-0--|
--------3----------3-----|--------3---------------------|
----------------------0---|----------------0-------------|
--------------------------|--0---------------------------|
--3-----------------------|------------------------------|
-----------3--------------|-----------0------------------|

-----3----------3--------|-------------------------|
--------3----------3-----|-----------3------------|
----------------------0--|-----------0-------------|
-------------------------|--------2--2-------------|
--3----------------------|-----2-------------------|
-----------3-------------|--0----------------------|


aki comienza la flauta  00:19
-----3----------3--------|-----2-------------3p-2p-0--|
--------3----------3-----|--------3---------------------|
----------------------0--|----------------0-------------|
-------------------------|--0---------------------------|
--3----------------------|------------------------------|
-----------3-------------|-----------0------------------|


-----3----------3--------|------------------------|
--------3----------3-----|-----------3------------|
----------------------0--|-----------0------------|
-------------------------|--------2--2------------|
--3----------------------|-----2------------------|
-----------3-------------|--0---------------------|

-----3----------3--------|-----2-------------3p-2p-0--|
--------3----------3-----|--------3--------------------|
----------------------0--|----------------0------------|
-----------5-------------|--0--------------------------|
--3----------------------|------------------------------|
-------------------------|-----------0-----------------|


-----3----------3--------|------------------------|
--------3----------3------|-----------3------------|
----------------------0---|-----------0------------|
-----------5--------------|--------2--2------------|
--3----------------------|-----2------------------|
---------------------------|--0---------------------|

             Es hora de Decir adios 00:39
-----3----------3--------|-----2-------------0h-----|
--------3----------3-----|--------3--------------3--|
----------------------0--|----------------0---------|
-------------------------|--0-----------------------|
--3----------------------|--------------------------|
-----------3-------------|-----------0--------------|


00:44 Es    tiempo  de      ignorar la voz
-----3----------3--------|------------------------|
--------3----------3-----|-----------3------------|
----------------------0---|-----------0------------|
-----------5--------------|--------2--2------------|
--3-----------------------|-----2------------------|
--------------------------|--0---------------------|


de la tristeza y de la soledad           y caminar
-----3----------3--------|-----2-------------0h-----|
--------3----------3-----|--------3--------------3--|
----------------------0--|----------------0---------|
-------------------------|--0-----------------------|
--3----------------------|--------------------------|
-----------3-------------|-----------0--------------|


hacia el mañana....     00:58 otra vez flauta
--------------------------||
--1-------3---------------||
--0-------2-------0------||
--2-------0-------2------||
--3---------------2------||
------------------0-------||
   C         D       Em

______________________________________________
---------------------------------------------------------------------------
00:19 Flauta    [es la misma pieza]
00:58

   C          G                        D               Em
--12------10----------------|----------------------------------|
------------------13--12----|--10----10h-12-------------------|
-----------------------------|----------------12-----11---------|
-----------------------------|----------------------------14----|
-----------------------------|-----------------------------------|
-----------------------------|-----------------------------------|

    C         G           Em           C               G         Em
--12-------10----------------|--12-----10----15--14--15--|
------------------13--12------|----------------------------|
--------------------------12--|----------------------------|
------------------------------|-----------------------------|
------------------------------|-----------------------------|
------------------------------|-----------------------------|

      C                         G                      Em
-----10-------------------|--12-----10--------------||
------------13----12------|-------------13--12------||
---------------------------|---------------------12--||
---------------------------|--------------------------||
---------------------------|--------------------------||
---------------------------|--------------------------||

01:17

C-G                    D      Em
Recuerda que la vida es                   ||esto lo pueden
C-G                D       Em                 ||tocar en acordes
Distinta cada amanecer,                  ||o como el punteo
 C              G                D        Em  || del seg 00:39
Tal vez mañana pueda ser mejor
       C             D          Em
Que tantos años de dolor.


C
Nunca pude imaginar
G
Tu alegría al descubrir
D                                 Em
Las palabras de quien te escuchó.
C                                   G
Mi sonrisa al ver la luz
                                  D
Que esconde tu corazón.


D                        G
Escucha al viento,
C            D              G
 y aparta todo lamento,
C            D                 Em
Te llevará mi canción,
            C                    D
Desde aquí, te pido valor.
x2


puente
E||-----3----------3--------|-----2-------------3p-2p-0--|
B||--------3----------3-----|--------3---------------------|
G||----------------------0--|----------------0-------------|
D||-------------------------|--0---------------------------|
A||--3----------------------|------------------------------|
E||-----------3-------------|-----------0------------------|

-----3----------3--------|------------------------||
--------3----------3-----|-----------3------------||
----------------------0--|-----------0------------||
-------------------------|--------2--2------------||
--3----------------------|-----2------------------||
-----------3-------------|--0---------------------||  x2


02:55

[Aki va el solo]
C G D Em
C G Em   x4

03:34
C
Nunca pude imaginar
G
Tu alegría al descubrir
D                                 Em
Las palabras de quien te escuchó.
C                                   G
Mi sonrisa al ver la luz
                                  D
Que esconde tu corazón.


D                        G
Escucha al viento,
C            D              G
 y aparta todo lamento,
C            D                 Em
Te llevará mi canción,
            C                    D
Desde aquí, te pido valor.


04:11
D                          G
Cuando tus miedos,
C              D
sean tan solo recuerdos
C                  D                Em
Será porque fuiste la luz,
               C                         D         G
Que venció a la amarga oscuridad.

C  D  G
C  D  Em
C  D

Correciones, errores preguntas o alguna cosa,
mi correo: blackhawk2093@
Добавлено: 18.03.2016
Вам также может быть интересно:
Другие материалы по этой песне:
  • Аккорды и текст

Страница создана 18.03.2016
http://primanota.ru/landevir/tu-seras-la-luz-chords.htm
Привет, Гость.
Предлагаем пройти революционный курс по гитаре.
Подарок от PrimaNota.Ru, забирай!