PrimaNota.ru - самый крупный в мире бесплатный архив песенных текстов, аккордов, табулатур и нот


Landevir - Moria - таба, видео

Регистрация Запомнить меня
Войти через:  Facebook Google Twitter Vk Yandex Mail.ru

Landevir - Moria - таба, видео

Печатать
Просмотров: 86
en la mayor parte de la cancion
         Bm                      Bm add11
---------0---------------0---------------0---------------0---------
-------3---3-----------3---3-----------3---3-----------3---3-------
-----4-------4-------4-------4-------4-------4-------4-------4-----
---4-----------4---4-----------4---4-----------4---4-----------4---
-2---------------2---------------0---------------0-----------------
-------------------------------------------------------------------

  E                               G               F#
----------0---------------0---------------0--------------------
--------0---0-----------0---0-----------3---3-----------2-2-0-2   <--|creo
------0-------0-------0-------0-------0-------0-------3--------      |k
----2-----------2---2-----------2---0-----------0---4----------      |esta
--------------------------------------------------4------------      |mal
--0---------------0---------------3----------------------------   x2


en la segunda entra este

-/2-------/2-0-0--------------------------------0-5-------/2-5-0------
----0-2-3-------3-2-2--3-2-0-2--0-2-3-3--3-2-0-----0-2-3--------3-2-2-
-------------------------------------------3--------------------------
----------------------------------------------------------------------
----------------------------------------------------------------------
----------------------------------------------------------------------


-----------------------------2-0------------------------
-3-2-3--0-2-3-3--3-2-0---0-3-----3-2-0-2----------------
-----------------------3------------------2-4-----------
----------------------------------------------2-4-------
--------------------------------------------------4-5---
--------------------------------------------------------


-/7-10-14-12-17-14-/7-10-14-12-10-9-9-
--------------------------------------
--------------------------------------
--------------------------------------
--------------------------------------
--------------------------------------
Добавлено: 18.03.2016
Другие материалы по этой песне:
  • Аккорды и текст

Страница создана 18.03.2016
http://primanota.ru/landevir/moria-chords.htm
Привет, Гость.
Предлагаем пройти революционный курс по гитаре.
Подарок от PrimaNota.Ru, забирай!