PrimaNota.ru - самый крупный в мире бесплатный архив песенных текстов, аккордов, табулатур и нот


Landevir - El Último Baile - таба, видео

Регистрация Запомнить меня
Войти через:  Facebook Google Twitter Vk Yandex Mail.ru

Landevir - El Último Baile - таба, видео

Печатать
Просмотров: 89
basada en la primera canción, en el album
"El Único", cuando Lándevir
se conocia bajo el nobre de Rivendell


------------------------0----------------------------
------------0-0-1p0-------3-1-0-0---3-1--------------
--------0-1---------2-------------------2------------
------3----------------------------------------------
----3------------------------------------------------
--1-----------------0--------------------------------


-----------------------------------------------------
------------0-0-1p0---------0--------1---------------
--------0-1---------2-----2--------2-----------------
------3-----------------2--------2-------------------
----3------------------------------------------------
--1-----------------0----------0---------------------


------------------------0----------------------------
------------0-0-1p0-------3-1-0-0---3-1--------------
--------0-1---------2-----------2-------2------------
------3-------------------------2--------------------
----3------------------------------------------------
--1-----------------0--------------------------------


------------------------------------------------------
------------0-0-1p0---------0--------1-------3------1-
--------0-1---------2-----2--------2-------2-------2--
------3-----------------2--------2-------2-------2----
----3----------------------------------0-------0------
--1-----------------0----------0----------------------

ese es el comienzo... despues se va arreglando esas mismas partes....
arreglenlo a su gusto.
Добавлено: 18.03.2016
Другие материалы по этой песне:
  • Аккорды и текст

Страница создана 18.03.2016
http://primanota.ru/landevir/el-ultimo-baile-chords.htm
Привет, Гость.
Предлагаем пройти революционный курс по гитаре.
Подарок от PrimaNota.Ru, забирай!