PrimaNota.ru - самый крупный в мире бесплатный архив песенных текстов, аккордов, табулатур и нот


Land Of Talk - Troubled - аккорды и текст, видео

Регистрация Запомнить меня
Войти через:  Facebook Google Twitter Vk Yandex Mail.ru

Land Of Talk - Troubled - аккорды и текст, видео

Печатать
Просмотров: 122
Troubled
Land Of Talk
I love this song but couldn't find any tabs for the chord patterns, I stumbled across 
myself so here they are.
This song uses E and E9 as well as some strange variations around the A chord

e|-------|--------------------------|
B|-------|--------------------------|
G|-------|--2--2--2-----------------|
D|-4--2--|--1--2--4 / 6-------------|
A|-2--2--|--0--0--0-------LET RING--|
E|-0--0--|-------(2)----------------|ON BASS but can be played with thumb

   E9        A


The chords are played in different sequences and you will have to listen to the track to 
exact sounds

verse

E                        A
Freedom to feel, all that I have been feeling....

chorus

E              A            E            A
Troubled heart folded, and doubled right over
E             B         A         E
Mon coeur se forme, perdu tu pouvouir


Piano after chorus

e|--12---11----7--4--2-------5-4---------------------------|
B|-------------------------------2-5-4---------------------|
G|-------------------------------------------2-1-----------|
D|-------------------------------------6-4-------2-1---4---|
A|---------------------------------------------------------|
E|---------------------------------------------------------|


verse

e|---------|------------------|
B|---------|------------------|
G|------1--|--2-2-2--2--------|
D|----4-2--|--1-1/2--2/4--4/6-|
A|----2-2--|--0-0-0--0-0--0-0-|
E|----0-0--|------------------|

there are some rhythm changes etc. but the chord pattern stays the same throughout.
Добавлено: 02.03.2012
Другие материалы по этой песне:
  • Аккорды и текст

Страница создана 02.03.2012
http://primanota.ru/land-of-talk/troubled-chords.htm
Привет, Гость.
Предлагаем пройти революционный курс по гитаре.
Подарок от PrimaNota.Ru, забирай!